>
 >
Love Song

Love Song Guitar Tabs

Four Year Strong - Love Song chords, tabs, tablatures, lyrics

Guitar lessons | Add/correct | Request | Top 50 tabs Artists:  A B C D E F G H I J K L M N O P Q R S T U V W X Y Z 0-9

Love Song Guitar Tabs – Four Year Strong

CD, Sheet music, Poster

Do you like Love Song? Share with your friends now
Tabs
-----------------------------------------------------

Tuning: Standard

Note: This is my first full song tabbed out, after listening to it multiple times 



  (Intro/verse)
e|-------------------------------------------------------------------------|
B|-------------------------------------------------------------------------|
G|-----------------------------------------------(x4)----------------------|
D|-----------------5\7-7777-9\10-10101010----------------------------------|
A|-5-5555-7\8-8888-3\5-5555-7\8--8-8-8-8--334------------------------------|
E|-3-3333-5\6-6666------------------------112------------------------------|
     ....     ....     ....      . . . .
  (Pre-Chorus 1)
e|-------------------------------------------------------------------------|
B|-------------------------------------------------------------------------|
G|-----------------------------------------------(first time)--------------|
D|-------------------------------------------------------------------------|
A|-55555555-77777777-88888888-1010101010101010-----------------------------|
E|-33333333-55555555-66666666-8-8-8-8-8-8-8-8------------------------------|
  
e|-------------------------------------------------------------------------|
B|-------------------------------------------------------------------------|
G|--------------------------------------(second time)----------------------|
D|-------------------------------------------------------------------------|
A|-55555555-77777777-88888888-8--------------------------------------------|
E|-33333333-55555555-66666666-6--------------------------------------------|
 
(Chorus)
e|-------------------------------------------------------------------------|
B|-------------------------------------------------------------------------|
G|------------------------------------------------(x2)---------------------|
D|---------5-5-5-3-2-2-2-2-3-3-3-3-----------------------------------------|
A|-5-5-5-5-3-3-3-1-0-0-0-0-1-1-1-1-----------------------------------------|
E|-3-3-3-3-----------------------------------------------------------------|
  
 (Post-Chorus 1)
e|-------------------------------------------------------------------------|
B|-------------------------------------------------------------------------|
G|-------------------------------------------------------------------------|
D|-----------------7--6/5-4-4-4-4-3-3-3-3--5--5----------------------------|
A|-5-5-5-5-7-7-7-7-5--4/3-2-2-2-2-1-1-1-1--3--3-3\5-5555-7\8-8888----------|
E|-3-3-3-3-5-5-5-5------------------------------1\3-3333-5\6-6666----------|
                                                    ....     ....
e|-------------------------------------------------------------------------|
B|-------------------------------------------------------------------------|
G|-------------------------------------------------------------------------|
D|-5\7-7777-9\10-10101010--------------------------------------------------|
A|-3\5-5555-7\8--8-8-8-8---------------------------------------------------|
E|-------------------------------------------------------------------------|
       ....      . . . .
  (verse)
e|-------------------------------------------------------------------------|
B|-------------------------------------------------------------------------|
G|-----------------------------------------------(x4)----------------------|
D|-----------------5\7-7777-9\10-10101010----------------------------------|
A|-5-5555-7\8-8888-3\5-5555-7\8--8-8-8-8--334------------------------------|
E|-3-3333-5\6-6666------------------------112------------------------------|
     ....     ....     ....      . . . .
  (Pre-chorus 2)
e|-------------------------------------------------------------------------|
B|-----------------------------------------------(first time)--------------|
G|-------------------------------------------------------------------------|
D|-------------------------------------------------------------------------|
A|-55555555-77777777-88888888-1010101010101010-----------------------------|
E|-33333333-55555555-66666666-8-8-8-8-8-8-8-8------------------------------|

e|-------------------------------------------------------------------------|
B|-------------------------------------------------------------------------|
G|-------------------------------------------------------------------------|
D|-------------------------------------------------------------------------|
A|-55555555-77777777-8~~~~~~~-8--------------------------------------------|
E|-33333333-55555555-6~~~~~~~-6--------------------------------------------|

  (Chorus)
e|-------------------------------------------------------------------------|
B|-------------------------------------------------------------------------|
G|------------------------------------------------(x2)---------------------|
D|---------5-5-5-3-2-2-2-2-3-3-3-3-----------------------------------------|
A|-5-5-5-5-3-3-3-1-0-0-0-0-1-1-1-1-----------------------------------------|
E|-3-3-3-3-----------------------------------------------------------------|

  (Post-chorus 2)
e|-------------------------------------------------------------------------|
B|-------------------------------------------------------------------------|
G|-------------------------------------------------------------------------|
D|-----------------7~6-5-4~-3-3-3-3-----0-0-------------------------------|
A|-5-5-5-5-7-7-7-7-5~4-3-2~-1-1-1-1-3~2~0-0--------------------------------|
E|-3-3-3-3-5-5-5-5------------------1~0~-----------------------------------|

e|-------------------------------------------------------------------------|
B|-------------------------------------------------------------------------|
G|-------------------------------------------------------------------------|
D|-77777777-------------------------------------77777777-------------------|
A|-55555555-77777777-88888888-1010101010101010--55555555-77777777----------|
E|----------55555555-66666666-8-8-8-8-8-8-8-8------------55555555----------|
   ........ ........ ........ . . . . . . . .       .... ........
e|-------------------------------------------------------------------------|
B|-------------------------------------------------------------------------|
G|-------------------------------------------------------------------------|
D|---------------------------7777----------------------------------3-3-3-3-|
A|-88888888-1010101010101010-5555-77-8888-10-10-10-10-10-10-10~~~~-1-1-1-1-|
E|-66666666-8-8-8-8-8-8-8-8-------55-6666-8--8--8--8--8--8--8~~~~~---------|
   ........ . . . . . . . .
  (Chorus)
e|-------------------------------------------------------------------------|
B|-------------------------------------------------------------------------|
G|------------------------------------------------(x2)---------------------|
D|---------5-5-5-3-2-2-2-2-3-3-3-3-----------------------------------------|
A|-5-5-5-5-3-3-3-1-0-0-0-0-1-1-1-1-----------------------------------------|
E|-3-3-3-3-----------------------------------------------------------------|
  
 (Outro)
e|-------------------------------------------------------------------------|
B|-------------------------------------------------------------------------|
G|-------------------------------------------------------------------------|
D|-------------------------------------7-7-7-7/4-4-4-4-3-3-3-3-5-5---------|
A|-5-5-5-5-7-7-7-7-8-8-8-8-10-10-10-10-5-5-5-5/2-2-2-2-1-1-1-1-3-3---------|
E|-3-3-3-3-5-5-5-5-6-6-6-6-8--8--8--8--------------------------------------|

e|-------------------------------------------------------------------------|
B|--------------------------------------------(first time)-----------------|
G|-------------------------------------------------------------------------|
D|------------------5\7-7777-9\10-10101010---------------------------------|
A|3\5-5555-7\8-8888-3\5-5555-7\8--8-8-8-8--334-----------------------------|
E|1\3-3333-5\6-6666------------------------112-----------------------------|
     ....     ....     ....      . . . .


e|-------------------------------------------------------------------------|
B|--------------------------------------------(second time)----------------|
G|-------------------------------------------------------------------------|
D|------------------5\7-7777-9-9-10~~~~~~~--(let ring)---------------------|
A|3\5-5555-7\8-8888-3\5-5555-7-7--8~~~~~~~---------------------------------|
E|1\3-3333-5\6-6666--------------------------------------------------------|
     ....     ....     .... 
  (Little guitar riff)     
e|-11---------------13~----------------------------------------------------|
B|---10--------------------------------------------------------------------|
G|-----10------10----------------------------------------------------------|
D|-------12~-12--12--------------------------------------------------------|
A|-------------------------------------------------------------------------|
E|-------------------------------------------------------------------------|



| /  slide up
| \  slide down
| h  hammer-on
| p  pull-off
| ~  vibrato
| +  harmonic
| x  Mute note





Comments


Popular Four Year Strong tabs & chords
Prepare To Be Digitally Manipulated Bass Tabs
Prepare To Be Digitally Manipulated 2 Bass Tabs
Tonight We Feel Alive (On A Saturday) Chords
Abandon Ship Or Abandon All Hope Intro Tabs
Dumpweed Tabs
Heroes Get Remembered Legends Never Die 5 Tabs
It Must Really Suck To Be Four Year Strong Right Now Tabs
Just Drive Intro Tabs
Prepare To Be Digitally Manipulated Tabs
The Take Over Tabs


Song lyrics



↑ Back to top | Tablatures and chords are parodies/interpretations of the original songs. You may use it for private study, scholarship, research or language learning purposes only
© 2014 AZChords.com Contact us | Privacy policy | DMCA | Add/correct tabs | Request tabs | Top 50 tabs