» » »

Four Year Strong, It Must Really Suck To Be Four Year Strong Right Now Tabs (ver.3)

Artists:  A B C D E F G H I J K L M N O P Q R S T U V W X Y Z # 

It Must Really Suck To Be Four Year Strong Right Now Tabs (ver.3)

Four Year Strong Tabs
 Rating:
4.5/5 (8 votes)
It Must Really Suck To Be Four Year Strong Right Now lessons Tabs too difficult? Try these video lessons and learn fast
1
                -------------------------------------------------------------------------------
    It Must Really Suck to be Four Year Strong Right Now - Four Year Strong
-------------------------------------------------------------------------------

Hey everyone! This is my first tab in a long time, so please be kind. I have
most of it down. Some of the stuff on the higher strings is probably off. If
you have anything to contribute, please let me know!

Tuning: DROP D

===============================================================================

INTRO:
 (The picking is hard to tab. If you play along with the song you should be
  able to get the idea though.)
e|-------------------------------------------------------------------|
B|-------------------------------------------------------------------|
G|-------------------------------------------------------------------|
D|-------------------------------------------------------------------|
A|--------4h5----------4h5----------4h5----------4h5---------7~------|
d|0000000------0000000------0000000------0000000------0000000--------|
  xxxxxxx      xxxxxxx      xxxxxxx      xxxxxxx      xxxxxxx
e|-------------------------------------------------------------------|
B|-------------------------------------------------------------------|
G|-------------------------------------------------------------------|
D|------------------------------------------------------------2-5-4--|
A|--------4h5----------4h5----------4h5----------4h5----------2-5-4--|
d|0000000------0000000------0000000------0000000------0000000-2-5-4--|
  xxxxxxx      xxxxxxx      xxxxxxx      xxxxxxx      xxxxxxx
e|-------------------------------------------------------------------|
B|-------------------------------------------------------------------|
G|-------------------------------------------------------------------|
D|----------------------------------------------------------------4p0|
A|--------4h5----------4h5----------4h5----------4h5----------4p0----|
d|0000000------0000000------0000000------0000000------0000000--------|
  xxxxxxx      xxxxxxx      xxxxxxx      xxxxxxx      xxxxxxx
e|-------------------------------------------------------------------|
B|-------------------------------------------------------------------|
G|-------------------------------------------------------------------|
D|------------------------------------------------------------2-5-4--|
A|--------4h5----------4h5----------4h5----------4h5----------2-5-4--|
d|0000000------0000000------0000000------0000000------0000000-2-5-4--|
  xxxxxxx      xxxxxxx      xxxxxxx      xxxxxxx      xxxxxxx
e|--------------------------------------------------------------------------------------------|
B|--------------------------------------------------------------------------------------------|
G|--------------------------------------------------------------------------------------------|
D|----------------------------------------------------------------4p0--2-5-4-5-------4-----5~-|
A|--------4h5----------4h5----------4h5----------4h5----------4p0------2-5-4-5--4h5--5--4h5---|
d|0000000------0000000------0000000------0000000------0000000----------2-5-4-5-------4--------|
  xxxxxxx      xxxxxxx      xxxxxxx      xxxxxxx      xxxxxxx

Verse:

Guitar 1:
e|--------9h10-|
B|-------------|
G|7777777------|
D|-------------|
A|-------------|
d|-------------|

Guitar 2:
e|-----------------------|
B|-----------------------|
G|-----------------------|
D|--------------5-5-5-0>-|
A|--------------5-5-5-0>-|
d|--------------5-5-5-0>-|

Guitar 1:
e|--10--10---10---10-10-10----------10--9--12--9|
B|----------------------------------10-10-10--10|
G|----------------------------------------------|
D|----------------------------------------------|
A|----------------------------------------------|
d|----------------------------------------------|

Guitar 2:
e|-------------------------|
B|-------------------------|
G|-------------------------|
D|--555-444-999-777-77-9-7-|
A|-------------------------|
d|-------------------------|

Pre-Chorus 1:

Guitar 1:
e|10--9--12-14-|
B|10-10-10--10-|
G|-------------|
D|-------------|
A|-------------|
d|-------------|

CHORUS:
e|-------------------------------------------------------------|
B|-------------------------------------------------------------|
G|-------------------------------------------------------------|
D|-0-5-0-5-9-7-5-0-5-0-9-7----555-555-000-777-555-555-999-777--|
A|-0-5-0-5-9-7-5-0-5-0-9-7----555-555-000-777-555-555-999-777--|
d|-0-5-0-5-9-7-5-0-5-0-9-7----555-555-000-777-555-555-999-777--|

Verse:

Guitar 1:
e|--------9h10-|
B|-------------|
G|7777777------|
D|-------------|
A|-------------|
d|-------------|

Guitar 2:
e|-----------------------|
B|-----------------------|
G|-----------------------|
D|--------------5-5-5-0>-|
A|--------------5-5-5-0>-|
d|--------------5-5-5-0>-|

Guitar 1:
e|--10--10---10---10-10-10----------10--9--12--9|
B|----------------------------------10-10-10--10|
G|----------------------------------------------|
D|----------------------------------------------|
A|----------------------------------------------|
d|----------------------------------------------|

Guitar 2:
e|-------------------------|
B|-------------------------|
G|-------------------------|
D|--555-444-999-777-77-9-7-|
A|-------------------------|
d|-------------------------|

Pre-Chorus 2:
(Just a little extra on Guitar 2 on this one.)

Guitar 1:
e|--10--10---10---10-10-10----------10--9--12--9|
B|----------------------------------10-10-10--10|
G|----------------------------------------------|
D|----------------------------------------------|
A|----------------------------------------------|
d|----------------------------------------------|

Guitar 2:
e|-------------------------------------------------------------|
B|-------------------------------------------------------------|
G|-------------------------------------------------------------|
D|-000-0>-000-0>-00-000-00-000--000-0>-000-0>--00-000-00-000---|
A|-000-0>-000-0>-00-000-00-000--000-0>-000-0>--00-000-00-000---|
d|-000-0>-000-0>-00-000-00-000--000-0>-000-0>--00-000-00-000---|
   xxx    xxx    xx xxx xx xxx  xxx    xxx     xx xxx xx xxx

CHORUS:
e|----------------------------------------------------------------|
B|----------------------------------------------------------------|
G|----------------------------------------------------------------|
D|-0-5-0-5-9-7-5-0-5-0-9-7----555-555-000-777-555-555-999-777--5-7|
A|-0-5-0-5-9-7-5-0-5-0-9-7----555-555-000-777-555-555-999-777--5-7|
d|-0-5-0-5-9-7-5-0-5-0-9-7----555-555-000-777-555-555-999-777--4-7|

Bridge:

Guitar 1:
e|--------------------|
B|--------------------|
G|--------------------|
D|--------------------|
A|--------------------|
d|-0000-00-0000-00-00-|
   xxxx xx xxxx xx xx 

Guitar2:
e|-----------------------------------------------------------------|
B|-----------------------------------------------------------------|
G|-----------------------------------------------------------------|
D|-----------------------------------------------------------------|
A|--------4h5----------4h5----------4h5----------4h5---------------|
d|0000000------0000000------0000000------0000000------0000000------|
  xxxxxxx      xxxxxxx      xxxxxxx      xxxxxxx      xxxxxxx

Guitar 1:
e|--10--10---10---10-10-10----------10--9--12--9|
B|----------------------------------10-10-10--10|
G|----------------------------------------------|
D|----------------------------------------------|
A|----------------------------------------------|
d|----------------------------------------------|

Guitar 2:
e|-------------------------|
B|-------------------------|
G|-------------------------|
D|--555-444-999-777-77-9-7-|
A|-------------------------|
d|-------------------------|

CHORUS:
e|-------------------------------------------------------------|
B|-------------------------------------------------------------|
G|-------------------------------------------------------------|
D|-0-5-0-5-9-7-5-0-5-0-9-7----555-555-000-777-555-555-999-777--|
A|-0-5-0-5-9-7-5-0-5-0-9-7----555-555-000-777-555-555-999-777--|
d|-0-5-0-5-9-7-5-0-5-0-9-7----555-555-000-777-555-555-999-777--|

Out-tro:
e|----------------------------------|
B|----------------------------------|
G|----------------------------------|
D|-5-0-9-7--5-0-9-7--0000-00-00-0>--|
A|-5-0-9-7--5-0-9-7--0000-00-00-0>--|
E|-5-0-9-7--5-0-9-7--0000-00-00-0>--|
===============================================================================
Hope it helps!



| /  slide up
| \  slide down
| h  hammer-on
| p  pull-off
| ~  vibrato
| +  harmonic
| x  Mute note
| >  Let ring
===============================================================================
            
Submit corrections

comments powered by Disqus
↑ Back to top | Four Year Strong Tabs for It Must Really Suck To Be Four Year Strong Right Now. Lyrics for acoustic guitar and electric guitar. 1 Tablatures and chords are parodies/interpretations of the original songs. You may use it for private study, scholarship, research or language learning purposes only