>
 >
Bada Bing! Wit' A Pipe!

Bada Bing! Wit' A Pipe! Guitar Tabs

Four Year Strong - Bada Bing! Wit' A Pipe! chords, tabs, tablatures, lyrics

Guitar lessons | Add/correct | Request | Top 50 tabs Artists:  A B C D E F G H I J K L M N O P Q R S T U V W X Y Z 0-9

Bada Bing! Wit' A Pipe! Guitar Tabs – Four Year Strong

CD, Sheet music, Poster

Do you like Bada Bing! Wit' A Pipe!? Share with your friends now
Bass TabsChordsTabs
Four Year Strong- Bada Bing! Wit' A Pipe!
Tab Dude: Christian Sumalpong
Tuning: D Standard

x-palm mute
/-slide
h-hammer on
p-pull off

UPDATE: Look, the song is in D STANDARD, not Dropped D. Four Year Strong plays mostly
their songs in D STANDARD, AND NOT DROPPED D. The tuning for D Standard is D G C F A D.
no, the song is not dropped D. Kay?

BUTT, if you're really not gonna tune your guitar down to D standard for this song, and
gonna play it in dropped D, just focus on the low D string's number/note/thingies. Those
basically the chords. For everything not on the D string, just move the notes down 2 
(subtract 2 from da numbers you see). KAY?!


Intro:

|-----------------------------------------------------------------|
|-----------------------------------------------------------------|
|-----------------------------------------------------------------|
|-1111--77--99--66-------1111--77--99--2--------------------------|
|-1111--77--99--66--679--1111--77--99--2--------------------------|
|--9-9--55--77--44--457---9-9--55--77--0--------------------------|
                    xxx

|-----------------------------------------------------------------|
|-----------------------------------------------------------------|
|-----------------------------------------------------------------|
|-1111--77--99--66-------777777777777-----------------------------|
|-1111--77--99--66--679--777777777777-----------------------------|
|--9-9--55--77--44--457--555555555555-----------------------------|
                    xxx
Repeat the intro once before the verse comes in.

Verse:

One guitar does this:
|-----------------------------------------------------------------|
|--97--97-9/10----------------------------------------------------|
|-999-999-9-9-----------------------------------------------------|
|-----------------------------------------------------------------|
|-----------------------------------------------------------------|
|-----------------------------------------------------------------|x2

Another guitar does this:
|-----------------------------------------------------------------|
|-----------------------------------------------------------------|
|-----------------------------------------------------------------|
|-99-9--99-9-9-9--9-99-9--99-9-9-9--9-----------------------------|
|-77-7--77-7-6/7--7-77-7--77-7-7-7--7-----------------------------|
|-55-5--99-9------7-77-7--77-7-7h9--5-----------------------------|x2

The guitar that did the thingy above does this:
|-----------------------------------------------------------------|
|-----------------------------------------------------------------|
|-----------------------------------------------------------------|
|-99-9--99-9-9-9--9-99-9--99-9-9-9--9-----------------------------|
|-77-7--77-7-6/7--7-77-7--77-7-7-7--7-----------------------------|
|-55-5--99-9------7-77-7--77-7-7h9--5-----------------------------|x2
  xxxxxxxxxxx       xxxxxxxxxxx

The guitar that did the lead thingy does this:
|---12-11---------------------------------------------------------|
|-----------9-10--------------------------------------------------|
|-99--9--999-9--9-11h12p11-9--------------------------------------|
|-----------------------------------------------------------------|
|-----------------------------------------------------------------|
|-----------------------------------------------------------------|x2

Prechorus:

One guitar does this:
|-----------------------------------------------------------------|
|-----------------------------------------------------------------|
|-----------------------------------------------------------------|
|-999--999--999--999--444--444--444--444--------------------------|
|-777--777--777--777--444--444--444--444--------------------------|
|-555--555--555--555--222--222--222--222--------------------------|
  xxx  xxx  xxx  xxx  xxx  xxx  xxx  xxx

Another guitar does this:
|-----7---------7---------7-------------7-------------------------|
|--7h9-9---7---7h9-9-----7h9-9---7---7h9--9-----------------------|
|-9------9---9---------9-------9----9-----------------------------|
|-----------------------------------------------------------------|
|-----------------------------------------------------------------|
|-----------------------------------------------------------------|

Chorus 1:
|-----------------------------------------------------------------|
|-----------------------------------------------------------------|
|-----------------------------------------------------------------|
|-2-------222---2-2--9-999-11/------9-999-11/---------------------|
|-2-------222---2-2--9-999-11/------9-999-11/---------------------|
|-0-------000---0-0--7-777-9/-------7-777-9/------12/-------------|
          xxx

|-----------------------------------------------------------------|
|-----------------------------------------------------------------|
|-----------------------------------------------------------------|
|-2-222-222------222-2-222-222------------------------------------|
|-2-222-222------222-2-222-222------------------------------------|
|-0-000-000------000-0-000-000------------------------------------|
    xxx xxx      xxx   xxx xxx

One guitar does:
|-----------------------------------------------------------------|
|-----------------------------------------------------------------|
|-----------------------------------------------------------------|
|-9-999-11-111111111111111111-9-999-11--111111111111111111-7------|
|-9-999-11-111111111111111111-9-999-11--111111111111111111-7------|
|-7-777-9--9-9-9-9-9-9-9-9-9--7-777-9---9-9-9-9-9-9-9-9-9--5------|

Another guitar does:
|-----------------------------------------------------------------|
|-----------------------------------------------------------------|
|----------999999999-----------999999999--------------------------|
|-9-999-11-xxxxxxxxx--9-999-11-xxxxxxxxx-9------------------------|
|-9-999-11-777777777--9-999-11-777777777-7------------------------|
|-7-777-9-------------7-777-9------------5------------------------|

Then do this before the 2nd verse:
|-----------------------------------------------------------------|
|-----------------------------------------------------------------|
|-----------------------------------------------------------------|
|-99-9--99-9-9-9--9-99-9--99-9-9-9--9-----------------------------|
|-77-7--77-7-6/7--7-77-7--77-7-7-7--7-----------------------------|
|-55-5--99-9------7-77-7--77-7-7h9--5-----------------------------|x2

Then do the verse again.

Then the prechorus again.

Chorus 2:
|-----------------------------------------------------------------|
|-----------------------------------------------------------------|
|-----------------------------------------------------------------|
|-22222222222222222222222222222-99911111111111119991111111111111--|
|-22222222222222222222222222222-99911111111111119991111111111111--|
|-00000000000000000000000000000-777999999999999-777999999999999---|

|-----------------------------------------------------------------|
|-----------------------------------------------------------------|
|-----------------------------------------------------------------|
|-2-222-222------222-2-222-222------------------------------------|
|-2-222-222------222-2-222-222------------------------------------|
|-0-000-000------000-0-000-000------------------------------------|
    xxx xxx      xxx   xxx xxx

One guitar does:
|-----------------------------------------------------------------|
|-----------------------------------------------------------------|
|-----------------------------------------------------------------|
|-9-999-11-111111111111111111-9-999-11--111111111111111111-7------|
|-9-999-11-111111111111111111-9-999-11--111111111111111111-7------|
|-7-777-9--9-9-9-9-9-9-9-9-9--7-777-9---9-9-9-9-9-9-9-9-9--5------|

Another guitar does:
|-----------------------------------------------------------------|
|-----------------------------------------------------------------|
|----------999999999-----------999999999--------------------------|
|-9-999-11-xxxxxxxxx--9-999-11-xxxxxxxxx-9------------------------|
|-9-999-11-777777777--9-999-11-777777777-7------------------------|
|-7-777-9-------------7-777-9------------5------------------------|

Bridge:
One guitar palm mutes the intro, then ends with:
|------------------|
|------------------|
|------------------|
|------9-----------|
|---7-----7---7----|
|-5---------5------|

Then, another guitar does:
|-----------------------------------------------------------------|
|-----------------------------------------------------------------|
|-----8h9------8h9-----8h9-----8h9-----8-----8-----11-9-8-9-9-----|
|-9h11-----9h11----9h11----9h11----9-11--9-11--9-11---------------|
|-----------------------------------------------------------------|
|-----------------------------------------------------------------|x2
  xxxx     xxxx    xxxx    xxxx    x xx  x xx  x xx

Then the 2 guitars play both the intro and this part without the palm mutes, 4 times.

On the 4th time, the lead/pickin' geeetar does:
|-----------------------------------------------------------------|
|-----------------------------------------------------------------|
|-13-11-9-11--9-11-12-11-9-11--9-8--------------------------------|
|-----------------------------------9-----------------------------|
|-----------------------------------------------------------------|
|-----------------------------------------------------------------|

Then play the 2nd chorus for the last part.





Comments


Popular Four Year Strong tabs & chords
Semi Charmed Life Chords
Tonight We Feel Alive (On A Saturday) Chords
Abandon Ship Or Abandon All Hope Intro Tabs
Catastrophe 1 Tabs
Go Long Dad Intro Tabs
Heroes Get Remembered Legends Never Die 3 Tabs
Just Drive Intro Tabs
This Summer Session Tabs
Tonight We Feel Alive (On A Saturday) Tabs
Find My Way Back Ukulele


Song lyrics



↑ Back to top | Tablatures and chords are parodies/interpretations of the original songs. You may use it for private study, scholarship, research or language learning purposes only
© 2014 AZChords.com Contact us | Privacy policy | DMCA | Add/correct tabs | Request tabs | Top 50 tabs