>
 >
Ronnie

Ronnie Bass Tabs

Four Seasons - Ronnie chords, tabs, tablatures, lyrics

Guitar lessons | Add/correct | Request | Top 50 tabs Artists:  A B C D E F G H I J K L M N O P Q R S T U V W X Y Z 0-9

Ronnie Bass Tabs – Four Seasons

CD, Sheet music, Poster

Do you like Ronnie? Share with your friends now
Bass TabsChordsChords v2TabsUkulele
Frankie Valli & the Four Seasons
Bass Tab


Intro

|--------------------------------------------------------------------------|
|-----7-----------------------7-----7-----7-----------4-------2------------|
|-------4---4-----0-2-0-2-5-----5-----5-----5--4--2-----2---2--------------|
|-5-----------2-4------------------------------------------------0--2--4---|

Verse

|---------------------------------------------------|
|-----------------------2---------------------2--2--|
|--------------4---4-4----4-------------2--2--------|
|-5---5-5--4-5--------------2---2-2--2--------------| x 2

Chorus

|-----------------------2-----2-----2--2-------------------------------|
|-----7------------2--------2-----2---------------7------------2-------|
|-5-----5----2---2----------------------------5-----5----2---2---------|
|-------------------------------------------------------------------5--|

|----------------------------------------------------------------------| 
|-7-----------------------7-----7-----7-----------4-------2------------| 
|---4---4-----0-2-0-2-5-----5-----5-----5--4--2-----2---2--------------| 
|---------2-4------------------------------------------------0--2--4---| 

Replaces Chorus ending second and third times

|-----------|  |-----------|
|-----7-----|  |-----7-----|
|--4-----4--|  |--4-----5--|
|-----------|  |-----------|

Bridge

|-----------------------------------------4------4----------------------------|
|----4-----4------------------4-----4---4---4-4----4----4-----4---------------|
|----------------4---------2-----2----------------------------------4---------|
|-2-----2------2---2-2--2----------------------------2-----2------2---2-2--2--|

|-----------------------------6-------------------------|
|---------------------------6---6-----------------------|
|---6------------7----------------4--4---7-5-4-2-0------|
|-6---6-6--6---7---7-7--7--------------------------4----|

Outro

|------------------------------------------------------------------|
|-----8-----------------------8-----8-----8-----------5-------3----|
|-------5---5-------3---3-6-----6-----6-----6--5--3-----3---3------|
|-6-----------3-5-6---6--------------------------------------------|


Intro
Verse
Chorus
Verse
Chorus
Bridge
Verse
Chorus
Outro til end





Comments


Popular Four Seasons tabs & chords
Oh, What A Night Bass Tabs
Cant Take My Eyes Chords
December '63 (Oh What A Night) Chords
December 1963 Chords
Idaho Chords
Marlena Chords
Save It For Me 2 Chords
Cant Take My Eyes Tabs
Walk Like A Man Tabs
Big Man In Town Ukulele


Song lyrics



↑ Back to top | Tablatures and chords are parodies/interpretations of the original songs. You may use it for private study, scholarship, research or language learning purposes only
© 2014 AZChords.com Contact us | Privacy policy | DMCA | Add/correct tabs | Request tabs | Top 50 tabs