» » »

December 1963 Bass tabs (ver.1)

Artists:  A B C D E F G H I J K L M N O P Q R S T U V W X Y Z # 

December 1963 Bass tabs (ver.1)

Four Seasons
Rating:
5/5 (3 votes)

Hard to play? Try these video lessons and learn fast.
                Four Seasons & Frankie Vallie



bass comes in...
|----------|
|-6--------|
|-------3--|
|---4-6----|

Verse
G|----------------------------------------|
D|---------3--x-4-4--x-4-x-4-x-6--6-------|
A|-4-x-6-x------------------------------3-|
E|----------------------------------4-6---|x6

|--3----6/1----(1)--3-1---1-3---------------------------------|-------|
|-----------------------3-------1----1/4---6------6-----6-----|-------|
|--------------------------------------------4------------4---|-----3-|
|----------------------------------------------4----4-6-----4-|-4-6---|

|----------------------------------------|
|---------3--x-4-4--x-4-x-4-x-6--6-------|
|-4-x-6-x------------------------------3-|
|----------------------------------4-6---|x4


Bridge
|---------------------------8-6-8-6---|
|-----------------------------------8-|
|-1-1------1-1------1-4-6-------------|
|------1-4------1-4-------------------|x2

|-------------------------------------------8-10----10-11-13-15-16-17-|
|-------------3-3---3-3---4-4---4-4--6-8-10------10-------------------|
|-6-6---6-6-----------------------------------------------------------|
|---------------------------------------------------------------------|


Verse
|----------------------------------------|
|---------3--x-4-4--x-4-x-4-x-6--6-------|
|-4-x-6-x------------------------------3-|
|----------------------------------4-6---|x4

|--3----6/1----(1)--3-1---1-3---------------------------------|-------|
|-----------------------3-------1----1/4---6------6-----6-----|-------|
|--------------------------------------------4------------4---|-----3-|
|----------------------------------------------4----4-6-----4-|-4-6---|

|----------------------------------------|
|---------3--x-4-4--x-4-x-4-x-6--6-------|
|-4-x-6-x------------------------------3-|
|----------------------------------4-6---|x4


Bridge
|---------------------------8-6-8-6---|
|-----------------------------------8-|
|-1-1------1-1------1-4-6-------------|
|------1-4------1-4-------------------|x2

|-------------------------------------------8-10----10-11-13-15-16-17-|
|-------------3-3---3-3---4-4---4-4--6-8-10------10-------------------|
|-6-6---6-6-----------------------------------------------------------|
|---------------------------------------------------------------------|


Chorus/verse riff
|----------------------------------------|
|---------3--x-4-4--x-4-x-4-x-6--6-------|
|-4-x-6-x------------------------------3-|
|----------------------------------4-6---|fade untill end (about 8x)
            
Hard to play? Try these video lessons and learn fast. | Correct




comments powered by Disqus
↑ Back to top | Tablatures and chords are parodies/interpretations of the original songs. You may use it for private study, scholarship, research or language learning purposes only