>
 >
Think Of Your Favorite Place

Think Of Your Favorite Place Guitar Tabs

Four Letter Lie - Think Of Your Favorite Place chords, tabs, tablatures, lyrics

Guitar lessons | Add/correct | Request | Top 50 tabs Artists:  A B C D E F G H I J K L M N O P Q R S T U V W X Y Z 0-9

Think Of Your Favorite Place Guitar Tabs – Four Letter Lie

CD, Sheet music, Poster

Do you like Think Of Your Favorite Place? Share with your friends now
Tabs
----------------------------------------------------------------------------
----------------------------------------------------------------------------


Tuning: Drop Db

Lead Guitar (Connor Kelly)(0:01-0:11)
|---------------------------------------------------------------------------|
|------7b-7b-10---------888888888888777777777777----------------------------|
|--7h9----------------------------------------------------------------------|
|---------------7-7-7-7-----------------------------------------------------|
|---------------------------------------------------------------------------|
|---------------------------------------------------------------------------|
x2                       ^^^^ This part here is speed picking

Rhythm Guitar (Kevin Skaff)(0:01-0:11)
|---------------------------------------------------------------------------|
|---------------------------------------------------------------------------|
|---------------------------------------------------------------------------|
|--7/9-9--2-2-2--5-5-5-5-4-4------------------------------------------------|
|--7/9-9--2-2-2--5-5-5-5-5-5------------------------------------------------|
|--7/9-9--2-2-2--5-5-5-5-4-4------------------------------------------------|
x2    End on the (5) bar on the 2nd time

Lead Guitar (0:11-0:17)
|---------------------------------------------------------------------------|
|---------------------------------------------------------------------------|
|---------------------------------------------------------------------------|
|---9-9-9-9-9-4-4-4-4-5-5-5-------------------------------------------------|
|---------------------------------------------------------------------------|
|--9-9-9-9-9-4-4-4-4-5-5-5--------------------------------------------------|

Rhythm Guitar (0:11-0:17)
|---------------------------------------------------------------------------|
|---------------------------------------------------------------------------|
|---------------------------------------------------------------------------|
|---------------------------------------------------------------------------|
|---------------------------------------------------------------------------|
|--9-9-9-9-9-9-9-4-4-4-4-5-5-5-5--------------------------------------------|

Lead Guitar (0:17-0:29)
|---------------------------------------------------------------------------|
|--------10-10-10-10-10-10-14-14-14-14-15-15-15-15-15-15-15-15-15-----------|
|---------------------------------------------------------------------------|
|--x-x------------------------------------------------------------x-x--x-x--|
|--x-x------------------------------------------------------------x-x--x-x--|
|--x-x------------------------------------------------------------x-x--x-x--|

Rhythm Guitar (0:17-0:29)
|---------------------------------------------------------------------------|
|---------------------------------------------------------------------------|
|---------------------------------------------------------------------------|
|--x-x-9-9-9-9-4-4-4-5-5-5-5-5-5-5--9-9-9-9-4-4-4-5-5-5-5-5-5-5-5-x-x--x-x--|
|--x-x-9-9-9-9-4-4-4-5-5-5-5-5-5-5--9-9-9-9-4-4-4-5-5-5-5-5-5-5-5-x-x--x-x--|
|--x-x-9-9-9-9-4-4-4-5-5-5-5-5-5-5--9-9-9-9-4-4-4-5-5-5-5-5-5-5-5-x-x--x-x--|

Lead and Rhythm Guitars (0:29-0:41)
|---------------------------------------------------------------------------|
|---------------------------------------------------------------------------|
|---------------------------------------------------------------------------|
|--x-x------------------------------------------------------------x-x--x-x--|
|--x-x------------------------------------------------------------x-x--x-x--|
|--x-x-9-9-9-9-4-4-4-5-5-5-5-5-5-5--9-9-9-9-4-4-4-5-5-5-5-5-5-5-5-x-x--x-x--|


Lead and Rhythm Guitars (0:41-0:46)
|---------------------------------------------------------------------------|
|---------------------------------------------------------------------------|
|---------------------------------------------------------------------------|
|--x-4-4-4-0-0-0-5-5-5-0-0-0-4-4-4-0-0-0-5-5-5------------------------------|
|--x-4-4-4-0-0-0-5-5-5-0-0-0-4-4-4-0-0-0-5-5-5------------------------------|
|--x-4-4-4-0-0-0-5-5-5-0-0-0-4-4-4-0-0-0-5-5-5------------------------------|

Lead and Rhythm Guitars (0:46-0:58)
|---------------------------------------------------------------------------|
|---------------------------------------------------------------------------|
|---------------------------------------------------------------------------|
|--0-0-0-0-2-2-2-2-5-5-5-5-5-5-5-5--0-0-0-0-2-2-2-2-5-5-5-5-5-5-5-5---------|
|--0-0-0-0-2-2-2-2-5-5-5-5-5-5-5-5--0-0-0-0-2-2-2-2-5-5-5-5-5-5-5-5---------|
|--0-0-0-0-2-2-2-2-5-5-5-5-5-5-5-5--0-0-0-0-2-2-2-2-5-5-5-5-5-5-5-5---------|

Lead Guitar (0:58-1:10)
|---------------------------------------------------------------------------|
|------7b-7b-10---------888888888888777777777777----------------------------|
|--7h9----------------------------------------------------------------------|
|---------------7-7-7-7-----------------------------------------------------|
|---------------------------------------------------------------------------|
|---------------------------------------------------------------------------|
x2                       ^^^^ This part here is speed picking

Rhythm Guitar (0:58-1:10)
|---------------------------------------------------------------------------|
|---------------------------------------------------------------------------|
|---------------------------------------------------------------------------|
|--7/9-9--2-2-2--5-5-5-5-4-4------------------------------------------------|
|--7/9-9--2-2-2--5-5-5-5-5-5------------------------------------------------|
|--7/9-9--2-2-2--5-5-5-5-4-4------------------------------------------------|
x2    End on the (5) bar on the 2nd time

Lead Guitar (1:10-1:16)
|---------------------------------------------------------------------------|
|---10-8-7-----------10-8-7-----------10-8-7------------10-8-7--------------|
|----------9-7-9-7-9--------9-7-9-7-9--------9-7-9-7-9---------9-7-9-7-9----|
|---------------------------------------------------------------------------|
|---------------------------------------------------------------------------|
|---------------------------------------------------------------------------|
^^^^^^^ This part goes by pretty fast so listen for it.

Rhythm Guitar (1:10-1:16)
|---------------------------------------------------------------------------|
|---------------------------------------------------------------------------|
|---------------------------------------------------------------------------|
|--10-10-10-10-10-10--------------------------------------------------------|
|--10-10-10-10-10-10--------------------------------------------------------|
|--10-10-10-10-10-10--------------------------------------------------------|

Lead and Rhythm Guitars (1:16-1:25)
|---------------------------------------------------------------------------|
|---------------------------------------------------------------------------|
|---------------------------------------------------------------------------|
|--x-x------------------------------------------------------------x-x--x-x--|
|--x-x------------------------------------------------------------x-x--x-x--|
|--x-x-9-9-9-9-4-4-4-5-5-5-5-5-5-5--9-9-9-9-4-4-4-5-5-5-5-5-5-5-5-x-x--x-x--|
Instead of ending on (5) the second time do the next part below

Lead and Rhythm Guitars (1:25-1:30)
|---------------------------------------------------------------------------|
|---------------------------------------------------------------------------|
|--7-7-7-7-7-7-7-7-9-9-9-9-9-9-9-9-9-9--------------------------------------|
|--7-7-7-7-7-7-7-7-9-9-9-9-9-9-9-9-9-9--------------------------------------|
|--5-5-5-5-5-5-5-5-7-7-7-7-7-7-7-7-7-7--------------------------------------|
|--5-5-5-5-5-5-5-5-7-7-7-7-7-7-7-7-7-7--------------------------------------|
^^^^^^ This is all palm muted

Lead Guitar (1:30-1:36)
|---------------------------------------------------------------------------|
|---------------------------------------------------------------------------|
|----------7h9-9b-7b---------7h9-9b-7b--------------------------------------|
|------7h9---------------7h9------------------------------------------------|
|--7h9---------------7h9----------------------------------------------------|
|---------------------------------------------------------------------------|

Rhythm Guitar (1:30-1:36)
|---------------------------------------------------------------------------|
|---------------------------------------------------------------------------|
|---------------------------------------------------------------------------|
|--9~----------------5~-----------------------------------------------------|
|--9~----------------5~-----------------------------------------------------|
|--9~----------------5~-----------------------------------------------------|

Lead and Rhythm Guitars (1:36-1:41)
|---------------------------------------------------------------------------|
|---------------------------------------------------------------------------|
|---------------------------------------------------------------------------|
|--x-4-4-4-0-0-0-5-5-5-0-0-0-4-4-4-0-0-0-5-5-5------------------------------|
|--x-4-4-4-0-0-0-5-5-5-0-0-0-4-4-4-0-0-0-5-5-5------------------------------|
|--x-4-4-4-0-0-0-5-5-5-0-0-0-4-4-4-0-0-0-5-5-5------------------------------|

Lead and Rhythm Guitars (1:41-2:05)
|---------------------------------------------------------------------------|
|---------------------------------------------------------------------------|
|---------------------------------------------------------------------------|
|--0-0-0-0-2-2-2-2-5-5-5-5-5-5-5-5--0-0-0-0-2-2-2-2-5-5-5-5-5-5-5-5---------|
|--0-0-0-0-2-2-2-2-5-5-5-5-5-5-5-5--0-0-0-0-2-2-2-2-5-5-5-5-5-5-5-5---------|
|--0-0-0-0-2-2-2-2-5-5-5-5-5-5-5-5--0-0-0-0-2-2-2-2-5-5-5-5-5-5-5-5---------|
x2

Lead and Rhythm Guitars (2:05-2:11)
|---------------------------------------------------------------------------|
|---------------------------------------------------------------------------|
|---------------------------------------------------------------------------|
|---5-55555555555-----------------------------------------------------------|
|---------------------------------------------------------------------------|
|---------------------------------------------------------------------------|
^^^^^^ Start Slow but gradually pick up speed

Lead and Rhythm Guitars (2:11-2:45) ("Breakdown")
|---------------------------------------------------------------------------|
|---------------------------------------------------------------------------|
|---------------------------------------------------------------------------|
|--9\-9-9\-x-5-9\-2-4-5--9\-9-9\-x-5-9\-2-4-5-(0)---------------------------|
|--9\-9-9\-x-5-9\-2-4-5--9\-9-9\-x-5-9\-2-4-5-(0)---------------------------|
|--9\-9-9\-x-5-9\-2-4-5--9\-9-9\-x-5-9\-2-4-5-(0)---------------------------|
x2      Play the (0)'s on the last time and let ring

Lead and Rhythm Guitars (2:45-2:51)
|---------------------------------------------------------------------------|
|---------------------------------------------------------------------------|
|---------------------------------------------------------------------------|
|---------------------------------------------------------------------------|
|---------------------------------------------------------------------------|
|--4-4-4-0-0-0-5-5-5-0-0-0-4-4-4-0-0-0-5-5-5--------------------------------|

Lead and Rhythm Guitars (2:51-2:57)
|---------------------------------------------------------------------------|
|---------------------------------------------------------------------------|
|---------------------------------------------------------------------------|
|--x-4-4-4-0-0-0-5-5-5-0-0-0-4-4-4-0-0-0-5-5-5------------------------------|
|--x-4-4-4-0-0-0-5-5-5-0-0-0-4-4-4-0-0-0-5-5-5------------------------------|
|--x-4-4-4-0-0-0-5-5-5-0-0-0-4-4-4-0-0-0-5-5-5------------------------------|

Lead and Rhythm Guitars (2:57-3:32)
|---------------------------------------------------------------------------|
|---------------------------------------------------------------------------|
|---------------------------------------------------------------------------|
|--0-0-0-0-2-2-2-2-5-5-5-5-5-5-5-5--0-0-0-0-2-2-2-2-5-5-5-5-5-5-5-5---------|
|--0-0-0-0-2-2-2-2-5-5-5-5-5-5-5-5--0-0-0-0-2-2-2-2-5-5-5-5-5-5-5-5---------|
|--0-0-0-0-2-2-2-2-5-5-5-5-5-5-5-5--0-0-0-0-2-2-2-2-5-5-5-5-5-5-5-5---------|
x3

Lead Guitar (3:32-3:48)
|---------------------------------------------------------------------------|
|------7b-7b-10---------7b~-------------------------------------------------|
|--7h9----------------------------------------------------------------------|
|---------------7-7-7-7-----------------------------------------------------|
|---------------------------------------------------------------------------|
|---------------------------------------------------------------------------|

Rhythm Guitar (3:32-3:48)
|---------------------------------------------------------------------------|
|---------------------------------------------------------------------------|
|---------------------------------------------------------------------------|
|--7/9-9--2-2-2--5~---------------------------------------------------------|
|--7/9-9--2-2-2--5~---------------------------------------------------------|
|--7/9-9--2-2-2--5~---------------------------------------------------------|


I'm about 99% sure this is correct but please leave comments if there are
any mistakes you see. I will also be making a tab on "Pretty/Ugly" soon and
one for "Cake Eater". There might be a possibility of making one for 
"What A Terrible Thing To Say" but there will be many mistakes on that tab.
Enjoy!

************************************

| /   slide up
| \   slide down
| h   hammer-on
| p   pull-off
| ~   vibrato
| +   harmonic
| x   Mute note
| b   Bend
| pb  Pre-bend
| br  Bend release
| pbr Pre-bend release
| brb Bend release bend

************************************





Comments


Popular Four Letter Lie tabs & chords
Naked Girl Avalanche Bass Tabs
Cake Eater Tabs
Firecracker Tabs
Firecracker 2 Tabs
Firecracker 4 Tabs
Firecracker 5 Tabs
Full Tilt Boogie Tabs
Nothing But A Ghost 1 Tabs
Stay For A Lifetime Tabs
Firecracker Ukulele


Song lyrics



↑ Back to top | Tablatures and chords are parodies/interpretations of the original songs. You may use it for private study, scholarship, research or language learning purposes only
© 2014 AZChords.com Contact us | Privacy policy | DMCA | Add/correct tabs | Request tabs | Top 50 tabs