>
 >
Naked Girl Avalanche

Naked Girl Avalanche Guitar Tabs

Four Letter Lie - Naked Girl Avalanche chords, tabs, tablatures, lyrics

Guitar lessons | Add/correct | Request | Top 50 tabs Artists:  A B C D E F G H I J K L M N O P Q R S T U V W X Y Z 0-9

Naked Girl Avalanche Guitar Tabs – Four Letter Lie

CD, Sheet music, Poster

Do you like Naked Girl Avalanche? Share with your friends now
Bass TabsTabs
BAND: Four Letter Lie
TUNING: Db Ab Db Gb Bb Eb

Ok guys, this is my second tab for the band Four Letter Lie. Hope you guys like it, cuz 
isn't to many tabs out there for this band.
I should have some other songs up eventually...enjoy...

KEY
~ = Let Ring
. = Palm Mute
x = mute
h = hammer on
+ = harmonic
^ = bend

Gtr I (Kevin)
Intro
|--x---------------------------|
|--x---------------------------|
|--x-4~~~--4~~~--4~~~----------|
|--x-4~~~--4~~~--2~~~--2-5~~~--|
|--x-2~~~--0~~~--2~~~--2-5~~~--|
|--x-------------2~~~--2-5~~~--|

|------------------------------|
|------------------------------|
|--4~~~--4~~~--4~~~------------|
|--4~~~--4~~~--2~~~--5-5--5-5--|
|--2~~~--0~~~--2~~~--5-5--5-5--|
|--------------2~~~--5-5--5-5--|

|------------------------------------------------------|
|------------------------------------------------------|
|--4-4-4-4-4-4--4-4-4-4-4-4--4-4-4-4-4-4---------------|
|--4-4-4-4-4-4--4-4-4-4-4-4--2-2-2-2-2-2--5-5-5-5-5-5--|
|--2-2-2-2-2-2--0-0-0-0-0-0--2-2-2-2-2-2--5-5-5-5-5-5--|
|----------------------------2-2-2-2-2-2--5-5-5-5-5-5--|

|----------------------------------------------------------|
|----------------------------------------------------------|
|--4-4-4-4-4-4--4-4-4-4-4-4--4-4--4-4-4--4-----------------|
|--4-4-4-4-4-4--4-4-4-4-4-4--2-2--2-2-2--2--5-5--5-5-5--5--|
|--2-2-2-2-2-2--0-0-0-0-0-0--2-2--2-2-2--2--5-5--5-5-5--5--|
|----------------------------2-2--2-2-2--2--5-5--5-5-5--5--|

|--------------------------|
|--------------------------|
|--------------------------|
|--2-2---2-2---5-5---5~~~--|
|--2-2---2-2---5-5---5~~~--|
|--2-2---2-2---5-5---5~~~--|


Verse I
|----------------------------------------------------|
|----------------------------------------------------|
|----------------------------------------------------|
|--4-4-4-4-4-4-4-4-4-4-4-4--4-4-4-4-4-4-4-4-4-4-4-4--|
|--2-2-2-2-2-2-2-2-2-2-2-2--0-0-0-0-0-0-0-0-0-0-0-0--|
|----------------------------------------------------|
PM . . . . . . . . . . . .  . . . . . . . . . . . .

|----------------------------------------------|
|----------------------------------------------|
|----------------------------------------------|
|--2-2-2-2-2-2-2-2-2-2-2-2--5-5-5-5-5-5-5-5-5--|
|--2-2-2-2-2-2-2-2-2-2-2-2--5-5-5-5-5-5-5-5-5--|
|--2-2-2-2-2-2-2-2-2-2-2-2--5-5-5-5-5-5-5-5-5--|
PM . . . . . . . . . . . .  . . . . . . . .

|----------------------------------------------------|
|----------------------------------------------------|
|--4-4-4-4-4-4-4-4-4-4-4-4--4-4-4-4-4-4-4-4-4-4-4-4--|
|--4-4-4-4-4-4-4-4-4-4-4-4--4-4-4-4-4-4-4-4-4-4-4-4--|
|--2-2-2-2-2-2-2-2-2-2-2-2--0-0-0-0-0-0-0-0-0-0-0-0--|
|----------------------------------------------------|

|----------------------------------------------------|
|----------------------------------------------------|
|----------------------------------------------------|
|--2-2-2-2-2-2-2-2-2-2-2-2--5-5-5-5-5-5-5-5-5-5-5-5--|
|--2-2-2-2-2-2-2-2-2-2-2-2--5-5-5-5-5-5-5-5-5-5-5-5--|
|--2-2-2-2-2-2-2-2-2-2-2-2--5-5-5-5-5-5-5-5-5-5-5-5--|

Chorus
|-----------------------------------------------||
|-----------------------------------------------||
|-----------------------------------------------||
|--5--5---5--7--7---7--9--9---9--9--9--7-7-7----||X2
|--5--5---5--7--7---7--9--9---9--9--9--7-7-7----||
|--5--5---5--7--7---7--9--9---9--9--9--7-7-7----||

|---------------------------------------------------------|
|---------------------------------------------------------|
|---------------------------------------------------------|
|--5-5-5-5-5-5---7-7-7-7-7-7---9-9-9-9-9-9---7-7-7-7-7-7--|
|--5-5-5-5-5-5---7-7-7-7-7-7---9-9-9-9-9-9---7-7-7-7-7-7--|
|--5-5-5-5-5-5---7-7-7-7-7-7---9-9-9-9-9-9---7-7-7-7-7-7--|

|--------------------------------|
|--------------------------------|
|--------------------------------|
|--5-5-5-5-5-5---7-7-7-7-7-7\\\--|
|--5-5-5-5-5-5---7-7-7-7-7-7\\\--|
|--5-5-5-5-5-5---7-7-7-7-7-7\\\--|


Post-Chorus
|---------------------------------------|
|---------------------------------------|
|---------------------------------------|
|--0h2p0---4--0---0h2p0---4--0--5--5\\--|
|--0h2p0---2--0---0h2p0---2--0--5--5\\--|
|--0h2p0------0---0h2p0------0--5--5\\--|

|------------------------------------|
|------------------------------------|
|------------------------------------|
|--0h2p0---4--0---0h2p0---4--0--5~\--|
|--0h2p0---2--0---0h2p0---2--0--5~\--|
|--0h2p0------0---0h2p0------0--5~\--|

Verse II
 (“Say it like you’ve been…”)
|-----------------------------------------|
|-----------------------------------------|
|-----------------------------------------|
|-----------------------------------------|
|-----------------------------------------|
|-----------------------------------------|

|------------------------------------------------------|
|------------------------------------------------------|
|------------------------------------------------------|
|--2-2-2-2-2-2-2-2-2-2-2-2-2-2-2-2-2-2-2-2-2-2--4-4-4--|
|--2-2-2-2-2-2-2-2-2-2-2-2-2-2-2-2-2-2-2-2-2-2--4-4-4--|
|--2-2-2-2-2-2-2-2-2-2-2-2-2-2-2-2-2-2-2-2-2-2--4-4-4--|
PM . . . . . . . . . . . . . . . . . . . . . .  . . .

|--------------------------------------------------------------------|
|--------------------------------------------------------------------|
|--------------------------------------------------------------------|
|--5-5-5-5-5-5-5-5-5-5-5-5-5-5-5-5--7-7-7-7-7-7-7-7-7-7-7-7-7-7-7-7--|
|--5-5-5-5-5-5-5-5-5-5-5-5-5-5-5-5--7-7-7-7-7-7-7-7-7-7-7-7-7-7-7-7--|
|--5-5-5-5-5-5-5-5-5-5-5-5-5-5-5-5--7-7-7-7-7-7-7-7-7-7-7-7-7-7-7-7--|
PM . . . . . . . . . . . . . . . .  . . . . . . . . . . . . . . . .

|----------------------------------------------------|
|----------------------------------------------------|
|----------------------------------------------------|
|--2-2-2-2-2-2-2-2-2-2-2-2-2-2-2-2-2-2-2-2-2-2--4-4--|
|--2-2-2-2-2-2-2-2-2-2-2-2-2-2-2-2-2-2-2-2-2-2--4-4--|
|--2-2-2-2-2-2-2-2-2-2-2-2-2-2-2-2-2-2-2-2-2-2--4-4--|
PM . . . . . . . . . . . . . . . . . . . . . .

|---------------------------------------------------------------------|
|------------------7-7-7-7-7-7-7-7-------------------1010101010101010-|
|------------------7-7-7-7-7-7-7-7-------------------9-9-9-9-9-9-9-9--|
|-5-5-5-5-5-5-5-5-------------------2-2-2-2-2-2-2-2-------------------|
|-5-5-5-5-5-5-5-5-------------------2-2-2-2-2-2-2-2-------------------|
|-5-5-5-5-5-5-5-5-------------------2-2-2-2-2-2-2-2-------------------|

|--------------------------------------------------|
|-------------------7-7-7-7-7-7-7-7----------------|
|-------------------7-7-7-7-7-7-7-7----------------|
|--5-5-5-5-5-5-5-5-------------------2--2--2--2/4--|
|--5-5-5-5-5-5-5-5-------------------2--2--2--2/4--|
|--5-5-5-5-5-5-5-5-------------------2--2--2--2/4--|

Pre-Chorus
|---------------------------------|
|---------------------------------|
|--4~~~---4~~~--------------------|
|--4~~~---4~~~---2~~~---5-5--5-5--|
|--2~~~---0~~~---2~~~---5-5--5-5--|
|----------------2~~~---5-5--5-5--|

Chorus
|--------------------------------------------------||
|--------------------------------------------------||
|--------------------------------------------------||
|--5--5---5--7--7---7--9--9---9--9--9---7--7--7----||X2
|--5--5---5--7--7---7--9--9---9--9--9---7--7--7----||
|--5--5---5--7--7---7--9--9---9--9--9---7--7--7----||

|------------------------------------------------------------||
|------------------------------------------------------------||
|------------------------------------------------------------||
|--5-5-5-5-5-5---7-7-7-7-7-7---9-9-9-9-9-9---7-7-7-7-7-7-----||
|--5-5-5-5-5-5---7-7-7-7-7-7---9-9-9-9-9-9---7-7-7-7-7-7-----||
|--5-5-5-5-5-5---7-7-7-7-7-7---9-9-9-9-9-9---7-7-7-7-7-7-----||

|-----------------------------|
|-----------------------------|
|-----------------------------|
|--5-5-5-5-5-5---7-7-7-7-7-7--|
|--5-5-5-5-5-5---7-7-7-7-7-7--|
|--5-5-5-5-5-5---7-7-7-7-7-7--|

Bridge
|------------------------------------------------|
|------------------------------------------------|
|------------------------------------------------|
|--2-2-2---0~~~---2-2-2---0~~~---5-5--5-5-5-5-5--|
|--2-2-2---0~~~---2-2-2---0~~~---5-5--5-5-5-5-5--|
|--2-2-2---0~~~---2-2-2---0~~~---5-5--5-5-5-5-5--|
PM                                    . . . . .

|----------------------------------------------------------|
|----------------------------------------------------------|
|-------------------------------------------------2//////--|
|--2-2-2---0~~~---2-2-2---0~~~---5-5--5-5-5-5-5---2//////--|
|--2-2-2---0~~~---2-2-2---0~~~---5-5--5-5-5-5-5------------|
|--2-2-2---0~~~---2-2-2---0~~~---5-5--5-5-5-5-5------------|
PM                                    . . . . .

|------------------------------------------------|
|------------------------------------------------|
|------------------------------------------------|
|--2-2-2---0~~~---2-2-2---0~~~---5-5--5-5-5-5-5--|
|--2-2-2---0~~~---2-2-2---0~~~---5-5--5-5-5-5-5--|
|--2-2-2---0~~~---2-2-2---0~~~---5-5--5-5-5-5-5--|
PM                                    . . . . .
|------------------------------------------------|
|------------------------------------------------|
|------------------------------------------------|
|--2-2-2---0~~~---2-2-2---0~~~---5-5--5-5-5-5-5--|
|--2-2-2---0~~~---2-2-2---0~~~---5-5--5-5-5-5-5--|
|--2-2-2---0~~~---2-2-2---0~~~---5-5--5-5-5-5-5--|
PM                                    . . . . .

|---------------------------------------------------------------------|
|---------------------------------------------------------------------|
|---------------------------------------------------------------------|
|--2-2-2-2-2-2-2-2-2-2-2-2-2--4-4-4--5-5-5-5-5-5-5-5-5-5-5-5-5-5-5-5--|
|--2-2-2-2-2-2-2-2-2-2-2-2-2--4-4-4--5-5-5-5-5-5-5-5-5-5-5-5-5-5-5-5--|
|--2-2-2-2-2-2-2-2-2-2-2-2-2--4-4-4--5-5-5-5-5-5-5-5-5-5-5-5-5-5-5-5--|

|-----------------------------------------------------|
|-----------------------------------------------------|
|-----------------------------------------------------|
|--2-2-2-2-2-2-2-2-2-2-2-2-2--4-4-4--5-5-5-5-5-5-5-5--|
|--2-2-2-2-2-2-2-2-2-2-2-2-2--4-4-4--5-5-5-5-5-5-5-5--|
|--2-2-2-2-2-2-2-2-2-2-2-2-2--4-4-4--5-5-5-5-5-5-5-5--|

|-----------------------------------------------|
|-----------------------------------------------|
|-----------------------------------------------|
|--7-7-7-7-7-7-7-7---5-5--5-5--5--5-5--5-5--5\--|
|--7-7-7-7-7-7-7-7---5-5--5-5--5--5-5--5-5--5\--|
|--7-7-7-7-7-7-7-7---5-5--5-5--5--5-5--5-5--5\--|

Break Down
|------------------------------------|
|------------------------------------|
|------------------------------------|
|--5---7----7---9----9---9----7---5--|
|--5---7----7---9----9---9----7---5--|
|--5---7----7---9----9---9----7---5--|

|-----------------------------|
|-----------------------------|
|-----------------------------|
|--5---7----7---9----9--9--9--|
|--5---7----7---9----9--9--9--|
|--5---7----7---9----9--9--9--|

Ending
|--12p10------14p10------12p10------14p10------12p10------10----||
|---------10---------10---------10---------10---------10--------||
|---------------------------------------------------------------||
|---------------------------------------------------------------||X4
|---------------------------------------------------------------||
|---------------------------------------------------------------||

|------------------------------------------------------------|
|--7-7-7-7-7-7-7---10101010101010-------1212---101010101010--|
|--7-7-7-7-7-7-7---9-9-9-9-9-9-9--------1111---9-9-9-9-9-9---|
|--5-5-5-5-5-5-5---7-7-7-7-7-7-7--------9-9----7-7-7-7-7-7---|
|--5-5-5-5-5-5-5---7-7-7-7-7-7-7--------9-9----7-7-7-7-7-7---|
|--5-5-5-5-5-5-5---7-7-7-7-7-7-7--------9-9----7-7-7-7-7-7---|

|---------------------------------|
|--7-7-7-7-7-7-7---101010101010\--|
|--7-7-7-7-7-7-7---9-9-9-9-9-9\\--|
|--5-5-5-5-5-5-5---7-7-7-7-7-7\\--|
|--5-5-5-5-5-5-5---7-7-7-7-7-7\\--|
|--5-5-5-5-5-5-5---7-7-7-7-7-7\\--|

|-----------------------------------------||
|-----------------------------------------||
|-----------------------------------------||
|--0h2p0---4--0---0h2p0---4--0---5--5\----||X2
|--0h2p0---2--0---0h2p0---2--0---5--5\----||
|--0h2p0------0---0h2p0------0---5--5\----||

Gtr II (Connor)
Intro
|------------------------------|
|------------------------------|
|------------------------------|
|------------------------------|
|------------------------------|
|------------------------------|

|------------------------------|
|------------------------------|
|------------------------------|
|--------------------5-5--5-5--|
|--------------------5-5--5-5--|
|--------------------5-5--5-5--|

|---------------------------------------------------------------|
|--------10------------10------------10-------------------------|
|----7--------7------7------7------7------7------9--------9-----|
|--9---9----9---9~-9------9---9~-9------9---9/11---11--11---11--|
|---------------------------------------------------------------|
|---------------------------------------------------------------|

|--------------------------------------------------------------|
|--------10------------10--------------------------------------|
|----7--------7------7------7\---------------------------------|
|--9---9----9---9~-9------9-----2-2---2-2-2--2--5-5--5-5-5--5--|
|-------------------------------2-2---2-2-2--2--5-5--5-5-5--5--|
|-------------------------------2-2---2-2-2--2--5-5--5-5-5--5--|

|--------------------------|
|--------------------------|
|--------------------------|
|--2-2---2-2---5-5---5~~~--|
|--2-2---2-2---5-5---5~~~--|
|--2-2---2-2---5-5---5~~~--|

Verse I
|----------------------------------------------------|
|----------------------------------------------------|
|----------------------------------------------------|
|--4-4-4-4-4-4-4-4-4-4-4-4--4-4-4-4-4-4-4-4-4-4-4-4--|
|--2-2-2-2-2-2-2-2-2-2-2-2--0-0-0-0-0-0-0-0-0-0-0-0--|
|----------------------------------------------------|
PM . . . . . . . . . . . .  . . . . . . . . . . . .

|----------------------------------------------|
|----------------------------------------------|
|----------------------------------------------|
|--2-2-2-2-2-2-2-2-2-2-2-2--5-5-5-5-5-5-5-5-5--|
|--2-2-2-2-2-2-2-2-2-2-2-2--5-5-5-5-5-5-5-5-5--|
|--2-2-2-2-2-2-2-2-2-2-2-2--5-5-5-5-5-5-5-5-5--|
PM . . . . . . . . . . . .  . . . . . . . .

|------------------------------------------------------|
|--------10------------10------------10------------10--|
|----7--------7------7------7------7------7------7-----|
|--9---9----9---9~-9------9---9~-9------9---9~-9-------|
|------------------------------------------------------|
|------------------------------------------------------|

|-------------------------------------------------------------------|
|--------10------------10------------10-----------------------------|
|----7--------7------7------7------7------7------7/9-9-9-9-9-9-9-9--|
|--9---9----9---9~-9------9---9~-9------9---9~-9--------------------|
|-------------------------------------------------------------------|
|-------------------------------------------------------------------|

Chorus
|---------------------------||
|--7----7----10-----10------||
|-----7---7------9-----9----||
|---------------------------||X4
|---------------------------||
|---------------------------||

|---------------------------------------------------------|
|---------------------------------------------------------|
|---------------------------------------------------------|
|--5-5-5-5-5-5---7-7-7-7-7-7---9-9-9-9-9-9---7-7-7-7-7-7--|
|--5-5-5-5-5-5---7-7-7-7-7-7---9-9-9-9-9-9---7-7-7-7-7-7--|
|--5-5-5-5-5-5---7-7-7-7-7-7---9-9-9-9-9-9---7-7-7-7-7-7--|

|--------------------------------|
|--------------------------------|
|--------------------------------|
|--5-5-5-5-5-5---7-7-7-7-7-7\\\--|
|--5-5-5-5-5-5---7-7-7-7-7-7\\\--|
|--5-5-5-5-5-5---7-7-7-7-7-7\\\--|

Post-Chorus
|---------------------------------------|
|---------------------------------------|
|---------------------------------------|
|--0h2p0---4--0---0h2p0---4--0--5--5\\--|
|--0h2p0---2--0---0h2p0---2--0--5--5\\--|
|--0h2p0------0---0h2p0------0--5--5\\--|

|------------------------------------|
|------------------------------------|
|------------------------------------|
|--0h2p0---4--0---0h2p0---4--0--5~\--|
|--0h2p0---2--0---0h2p0---2--0--5~\--|
|--0h2p0------0---0h2p0------0--5~\--|

Verse II
|-------------------------------------------------------|
|--------10~~~---------7~~~---------10~~~---------7~~~--|
|----7-------------7------------7-------------7---------|
|--9---9---------5---5--------9---9---------5---5-------|
|-------------------------------------------------------|
|-------------------------------------------------------|

|---------------------------------------------|
|----10~~~-----10~-7~~-----10~~~-----10^-7~~--|
|--7---------7-----------7---------7----------|
|---------------------------------------------|
|---------------------------------------------|
|---------------------------------------------|

|---------------------------------------------|
|----10~~~-----10^-7~~-----10~~~-----10^-7~~--|
|--7---------7-----------7---------7----------|
|---------------------------------------------|
|---------------------------------------------|
|---------------------------------------------|

|---------------------------------------------------------------------|
|------------------7-7-7-7-7-7-7-7-------------------1010101010101010-|
|------------------7-7-7-7-7-7-7-7-------------------9-9-9-9-9-9-9-9--|
|-5-5-5-5-5-5-5-5-------------------2-2-2-2-2-2-2-2-------------------|
|-5-5-5-5-5-5-5-5-------------------2-2-2-2-2-2-2-2-------------------|
|-5-5-5-5-5-5-5-5-------------------2-2-2-2-2-2-2-2-------------------|

|--------------------------------------------------|
|-------------------7-7-7-7-7-7-7-7----------------|
|-------------------7-7-7-7-7-7-7-7----------------|
|--5-5-5-5-5-5-5-5-------------------2--2--2--2/4--|
|--5-5-5-5-5-5-5-5-------------------2--2--2--2/4--|
|--5-5-5-5-5-5-5-5-------------------2--2--2--2/4--|

Pre-Chorus
|---------------------------------|
|---------------------------------|
|---------------------------------|
|-----------------------5-5--5-5--|
|-----------------------5-5--5-5--|
|-----------------------5-5--5-5--|

Chorus
|---------------------------||
|--7----7----10-----10------||
|-----7---7------9-----9----||
|---------------------------||X4
|---------------------------||
|---------------------------||

|---------------------------------------------------------|
|---------------------------------------------------------|
|---------------------------------------------------------|
|--5-5-5-5-5-5---7-7-7-7-7-7---9-9-9-9-9-9---7-7-7-7-7-7--|
|--5-5-5-5-5-5---7-7-7-7-7-7---9-9-9-9-9-9---7-7-7-7-7-7--|
|--5-5-5-5-5-5---7-7-7-7-7-7---9-9-9-9-9-9---7-7-7-7-7-7--|

|--------------------------------|
|--------------------------------|
|--------------------------------|
|--5-5-5-5-5-5---7-7-7-7-7-7\\\--|
|--5-5-5-5-5-5---7-7-7-7-7-7\\\--|
|--5-5-5-5-5-5---7-7-7-7-7-7\\\--|

Bridge
|------------------------------------------------|
|------------------------------------------------|
|------------------------------------------------|
|--2-2-2---0~~~---2-2-2---0~~~---5-5--5-5-5-5-5--|
|--2-2-2---0~~~---2-2-2---0~~~---5-5--5-5-5-5-5--|
|--2-2-2---0~~~---2-2-2---0~~~---5-5--5-5-5-5-5--|
PM                                    . . . . .

|----------------------------------------------------------|
|----------------------------------------------------------|
|-------------------------------------------------2//////--|
|--2-2-2---0~~~---2-2-2---0~~~---5-5--5-5-5-5-5---2//////--|
|--2-2-2---0~~~---2-2-2---0~~~---5-5--5-5-5-5-5------------|
|--2-2-2---0~~~---2-2-2---0~~~---5-5--5-5-5-5-5------------|
PM                                    . . . . .

|------------------------------------------------|
|------------------------------------------------|
|------------------------------------------------|
|--2-2-2---0~~~---2-2-2---0~~~---5-5--5-5-5-5-5--|
|--2-2-2---0~~~---2-2-2---0~~~---5-5--5-5-5-5-5--|
|--2-2-2---0~~~---2-2-2---0~~~---5-5--5-5-5-5-5--|
PM                                    . . . . .
|------------------------------------------------|
|------------------------------------------------|
|------------------------------------------------|
|--2-2-2---0~~~---2-2-2---0~~~---5-5--5-5-5-5-5--|
|--2-2-2---0~~~---2-2-2---0~~~---5-5--5-5-5-5-5--|
|--2-2-2---0~~~---2-2-2---0~~~---5-5--5-5-5-5-5--|
PM                                    . . . . .
|--------------------------------------------------------------------|
|--------------------------------------------------------------------|
|--9-9-9-9-9-9-9-9-9-9-9-9-9-9-9-9--7-7-7-7-7-7-7-7-7-7-7-7-7-7-7-7--|
|--x-x-x-x-x-x-x-x-x-x-x-x-x-x-x-x--x-x-x-x-x-x-x-x-x-x-x-x-x-x-x-x--|
|--7-7-7-7-7-7-7-7-7-7-7-7-7-7-7-7--5-5-5-5-5-5-5-5-5-5-5-5-5-5-5-5--|
|--------------------------------------------------------------------|

|------------------------------------------------------|
|------------------------------------------------------|
|--9-9-9-9-9-9-9-9-9-9-9-9-9--111111-1212121212121212--|
|--x-x-x-x-x-x-x-x-x-x-x-x-x--x-x-x--x-x-x-x-x-x-x-x---|
|--7-7-7-7-7-7-7-7-7-7-7-7-7--9-9-9--1010101010101010--|
|------------------------------------------------------|

|-----------------------------------------------|
|-----------------------------------------------|
|--1414141414141414-----------------------------|
|--x-x-x-x-x-x-x-x---5-5--5-5--5--5-5--5-5--5\--|
|--1212121212121212--5-5--5-5--5--5-5--5-5--5\--|
|--------------------5-5--5-5--5--5-5--5-5--5\--|

Break Down (Quiet Time)
Gtr I plays. Gtr II rests.

Ending
|---------------------------------------------------------------------|
|---------------------------------------------------------------------|
|---------------------------------------------------------------------|
|-5-5-5-5-5-5-5-5--7-7-7-7-7-7-7-7--9-9-9-9-9-9-9-9--7-7-7-7-7-7-7-7--|
|-5-5-5-5-5-5-5-5--7-7-7-7-7-7-7-7--9-9-9-9-9-9-9-9--7-7-7-7-7-7-7-7--|
|-5-5-5-5-5-5-5-5--7-7-7-7-7-7-7-7--9-9-9-9-9-9-9-9--7-7-7-7-7-7-7-7--|

|------------------------------------------------------------|
|--7-7-7-7-7-7-7---10101010101010-------1212---101010101010--|
|--7-7-7-7-7-7-7---9-9-9-9-9-9-9--------1111---9-9-9-9-9-9---|
|--5-5-5-5-5-5-5---7-7-7-7-7-7-7--------9-9----7-7-7-7-7-7---|
|--5-5-5-5-5-5-5---7-7-7-7-7-7-7--------9-9----7-7-7-7-7-7---|
|--5-5-5-5-5-5-5---7-7-7-7-7-7-7--------9-9----7-7-7-7-7-7---|

|---------------------------------|
|--7-7-7-7-7-7-7---101010101010\--|
|--7-7-7-7-7-7-7---9-9-9-9-9-9\\--|
|--5-5-5-5-5-5-5---7-7-7-7-7-7\\--|
|--5-5-5-5-5-5-5---7-7-7-7-7-7\\--|
|--5-5-5-5-5-5-5---7-7-7-7-7-7\\--|

|-----------------------------------------||
|-----------------------------------------||
|-----------------------------------------||
|--0h2p0---4--0---0h2p0---4--0---5--5\----||X2
|--0h2p0---2--0---0h2p0---2--0---5--5\----||
|--0h2p0------0---0h2p0------0---5--5\----||





Comments


Popular Four Letter Lie tabs & chords
Firecracker Chords
Daymaker Tabs
Firecracker Tabs
Firecracker 3 Tabs
Firecracker 4 Tabs
Firecracker 5 Tabs
Full Tilt Boogie Tabs
It's Coming This Way Tabs
My Surrender Tabs
Nothing But A Ghost 1 Tabs


Song lyrics



↑ Back to top | Tablatures and chords are parodies/interpretations of the original songs. You may use it for private study, scholarship, research or language learning purposes only
© 2014 AZChords.com Contact us | Privacy policy | DMCA | Add/correct tabs | Request tabs | Top 50 tabs