>
 >
It's Coming This Way

It's Coming This Way Guitar Tabs

Four Letter Lie - It's Coming This Way chords, tabs, tablatures, lyrics

Guitar lessons | Add/correct | Request | Top 50 tabs Artists:  A B C D E F G H I J K L M N O P Q R S T U V W X Y Z 0-9

It's Coming This Way Guitar Tabs – Four Letter Lie

CD, Sheet music, Poster

Do you like It's Coming This Way? Share with your friends now
Tabs
-----------------------------------------------------------------------------
-----------------------------------------------------------------------------

this is an awesome song to just rage on. enjoy

Tuning: Drop Db

eb|--------------------------------------------------------------------|
Bb|----------------------------10b~---------10b~-----------------------|
Gb|--------------------------------------------------------------------|
Db|----0~--------------------------------------------------------------|
Ab|----0~--------------------------------------------------------------|
Db|----0~--------------------------------------------------------------|
when you hit the 0's make sure you have your guitar volume on 0 and raise the volume.

Both Guitars (0:20-0:31)
eb|--------------------------------------------------------------------|
Bb|--------------------------------------------------------------------|
Gb|--------------------------------------------------------------------|
Db|---8\-0--0-0-0--7-8-7-8-10-12\--0--0-0-0-7-8-8-10-------------------|
Ab|---8\-0--0-0-0--7-8-7-8-10-12\--0--0-0-0-7-8-8-10-------------------|
Db|---8\-0--0-0-0--7-8-7-8-10-12\--0--0-0-0-7-8-8-10-------------------|x2

Guitar 1 (0:31-0:36)
eb|--------------------------------------------------------------------|
Bb|--------------------------------------------------------------------|
Gb|---7-7--9-9--10-10--12-12-------------------------------------------|
Db|---x-x--x-x--x--x---x--x--------------------------------------------|
Ab|---5-5--7-7--8--8---10-10-------------------------------------------|
Db|--------------------------------------------------------------------|x2

Guitar 2 (0:31-0:36)
eb|--------------------------------------------------------------------|
Bb|--------------------------------------------------------------------|
Gb|--------------------------------------------------------------------|
Db|---8-8-8-8-8-8-8-8-8------------------------------------------------|
Ab|---8-8-8-8-8-8-8-8-8------------------------------------------------|
Db|---8-8-8-8-8-8-8-8-8------------------------------------------------|

Both Guitars (0:36-0:41)
eb|--------------------------------------------------------------------|
Bb|--------------------------------------------------------------------|
Gb|--------------------------------------------------------------------|
Db|---0-0-----0-----0-0-----0------------------------------------------|
Ab|---0-0-3h5-0-----0-0-3h5-0------------------------------------------|
Db|---0-0-----0-----0-0-----0------------------------------------------|x2

Guitar 1 (0:41-0:46)
eb|--------------------------------------------------------------------|
Bb|--------------------------------------------------------------------|
Gb|---7-7--9-9--10-10--12-12-------------------------------------------|
Db|---x-x--x-x--x--x---x--x--------------------------------------------|
Ab|---5-5--7-7--8--8---10-10-------------------------------------------|
Db|--------------------------------------------------------------------|x2

Guitar 2 (0:41-0:46)
eb|--------------------------------------------------------------------|
Bb|--------------------------------------------------------------------|
Gb|--------------------------------------------------------------------|
Db|---8-8-8-8-8-8-8-8-8------------------------------------------------|
Ab|---8-8-8-8-8-8-8-8-8------------------------------------------------|
Db|---8-8-8-8-8-8-8-8-8------------------------------------------------|

Guitar 1 (0:46-0:52)
eb|--------------------------------------------------------------------|
Bb|----10b-10b-10b-10b-10b---------------------------------------------|
Gb|--------------------------------------------------------------------|
Db|--------------------------------------------------------------------|
Ab|--------------------------------------------------------------------|
Db|--------------------------------------------------------------------|
This part ^^^ is speed picking while your bending so its not like 10 then
 bend but more like you speed pick 10 over and over and then gradually bend the note.

Guitar 2 (0:46-0:52)
eb|--------------------------------------------------------------------|
Bb|--------------------------------------------------------------------|
Gb|--------------------------------------------------------------------|
Db|----8\-0-0-00-0---10\-0-0-00-0--------------------------------------|
Ab|----8\-0-0-00-0---10\-0-0-00-0--------------------------------------|
Db|----8\-0-0-00-0---10\-0-0-00-0--------------------------------------|X2

Guitar 1 (0:52-0:57)
eb|--------------------------------------------------------------------|
Bb|--------------------------------------------------------------------|
Gb|---7-7--9-9--10-10--12-12-------------------------------------------|
Db|---x-x--x-x--x--x---x--x--------------------------------------------|
Ab|---5-5--7-7--8--8---10-10-------------------------------------------|
Db|--------------------------------------------------------------------|x2

Guitar 2 (0:52-0:57)
eb|--------------------------------------------------------------------|
Bb|--------------------------------------------------------------------|
Gb|--------------------------------------------------------------------|
Db|---8-8-8-8-8-8-8-8-8------------------------------------------------|
Ab|---8-8-8-8-8-8-8-8-8------------------------------------------------|
Db|---8-8-8-8-8-8-8-8-8------------------------------------------------|

Both Guitars (0:57-1:02)
eb|--------------------------------------------------------------------|
Bb|--------------------------------------------------------------------|
Gb|---10--10--10-10--10--10-10--10--10-10--10-10-10\9------------------|
Db|---10--10--10-10--10--10-10--10--10-10--x--x---x-x------------------|
Ab|---8---8---8--8---8---8--8---8---8--8---8--8---8\7------------------|
Db|---8---8---8--8---8---8--8---8---8--8-------------------------------|
spacing is intentional because of the stroking pattern in this part

Both Guitars (1:02-1:12)
eb|--------------------------------------------------------------------|
Bb|--------------------------------------------------------------------|
Gb|--------------------------------------------------------------------|
Db|----0-0-0-5-000-3-2-0-0-0-5-000-3-2---------------------------------|
Ab|----0-0-0-5-000-3-2-0-0-0-5-000-3-2---------------------------------|
Db|----0-0-0-5-000-3-2-0-0-0-5-000-3-2---------------------------------|x2
on the last one end on the 000. In other words dont do the 3-2 part on the
 last time.

Both Guitars (1:02-1:28)
eb|--------------------------------------------------------------------|
Bb|--------------------------------------------------------------------|
Gb|--------------------------------------------------------------------|
Db|---8\-0--0-0-0--7-8-7-8-10-12\--0--0-0-0-7-8-8-10-------------------|
Ab|---8\-0--0-0-0--7-8-7-8-10-12\--0--0-0-0-7-8-8-10-------------------|
Db|---8\-0--0-0-0--7-8-7-8-10-12\--0--0-0-0-7-8-8-10-------------------|x3
after the first time doing this^^^ palm mute in between the 0's.

Guitar 1 (1:28-1:33)
eb|--------------------------------------------------------------------|
Bb|--------------------------------------------------------------------|
Gb|---7-7--9-9--10-10--12-12-------------------------------------------|
Db|---x-x--x-x--x--x---x--x--------------------------------------------|
Ab|---5-5--7-7--8--8---10-10-------------------------------------------|
Db|--------------------------------------------------------------------|x2

Guitar 2 (1:28-1:33)
eb|--------------------------------------------------------------------|
Bb|--------------------------------------------------------------------|
Gb|--------------------------------------------------------------------|
Db|---8-8-8-8-8-8-8-8-8------------------------------------------------|
Ab|---8-8-8-8-8-8-8-8-8------------------------------------------------|
Db|---8-8-8-8-8-8-8-8-8------------------------------------------------|

Both Guitars (1:33-1:38)
eb|--------------------------------------------------------------------|
Bb|--------------------------------------------------------------------|
Gb|--------------------------------------------------------------------|
Db|---0-0-----0-----0-0-----0------------------------------------------|
Ab|---0-0-3h5-0-----0-0-3h5-0------------------------------------------|
Db|---0-0-----0-----0-0-----0------------------------------------------|x2

Guitar 1 (1:38-1:43)
eb|--------------------------------------------------------------------|
Bb|--------------------------------------------------------------------|
Gb|---7-7--9-9--10-10--12-12-------------------------------------------|
Db|---x-x--x-x--x--x---x--x--------------------------------------------|
Ab|---5-5--7-7--8--8---10-10-------------------------------------------|
Db|--------------------------------------------------------------------|x2

Guitar 2 (1:38-1:43)
eb|--------------------------------------------------------------------|
Bb|--------------------------------------------------------------------|
Gb|--------------------------------------------------------------------|
Db|---8-8-8-8-8-8-8-8-8------------------------------------------------|
Ab|---8-8-8-8-8-8-8-8-8------------------------------------------------|
Db|---8-8-8-8-8-8-8-8-8------------------------------------------------|

Guitar 1 (1:43-1:49)
eb|--------------------------------------------------------------------|
Bb|----10b-10b-10b-10b-10b---------------------------------------------|
Gb|--------------------------------------------------------------------|
Db|--------------------------------------------------------------------|
Ab|--------------------------------------------------------------------|
Db|--------------------------------------------------------------------|
This part ^^^ is speed picking while your bending so its not like 10 then
 bend but more like you speed pick 10 over and over and then gradually bend the note.

Guitar 2 (1:43-1:49)
eb|--------------------------------------------------------------------|
Bb|--------------------------------------------------------------------|
Gb|--------------------------------------------------------------------|
Db|----8\-0-0-00-0---10\-0-0-00-0--------------------------------------|
Ab|----8\-0-0-00-0---10\-0-0-00-0--------------------------------------|
Db|----8\-0-0-00-0---10\-0-0-00-0--------------------------------------|X2

Guitar 1 (1:49-1:54)
eb|--------------------------------------------------------------------|
Bb|--------------------------------------------------------------------|
Gb|---7-7--9-9--10-10--12-12-------------------------------------------|
Db|---x-x--x-x--x--x---x--x--------------------------------------------|
Ab|---5-5--7-7--8--8---10-10-------------------------------------------|
Db|--------------------------------------------------------------------|x2

Guitar 2 (1:49-1:54)
eb|--------------------------------------------------------------------|
Bb|--------------------------------------------------------------------|
Gb|--------------------------------------------------------------------|
Db|---8-8-8-8-8-8-8-8-8------------------------------------------------|
Ab|---8-8-8-8-8-8-8-8-8------------------------------------------------|
Db|---8-8-8-8-8-8-8-8-8------------------------------------------------|

Both Guitars (1:54-1:59)
eb|--------------------------------------------------------------------|
Bb|--------------------------------------------------------------------|
Gb|---10--10--10-10--10--10-10--10--10-10--10-10-10\9------------------|
Db|---10--10--10-10--10--10-10--10--10-10--x--x---x-x------------------|
Ab|---8---8---8--8---8---8--8---8---8--8---8--8---8\7------------------|
Db|---8---8---8--8---8---8--8---8---8--8-------------------------------|
spacing is intentional because of the stroking pattern in this part

Both Guitars (1:59-2:05)
eb|--------------------------------------------------------------------|
Bb|--------------------------------------------------------------------|
Gb|--------------------------------------------------------------------|
Db|----0~----0~----0~----0-0-0-0---------------------------------------|
Ab|----0~----0~----0~----0-0-0-0---------------------------------------|
Db|----0~----0~----0~----0-0-0-0---------------------------------------|

Both Guitars (2:05-2:09)
eb|--------------------------------------------------------------------|
Bb|--------------------------------------------------------------------|
Gb|--------------------------------------------------------------------|
Db|----8-8-8-8-8-8-8-8-8-8-8-8-8---------------------------------------|
Ab|----8-8-8-8-8-8-8-8-8-8-8-8-8---------------------------------------|
Db|----8-8-8-8-8-8-8-8-8-8-8-8-8---------------------------------------|

Guitar 1 (2:09-2:20)
eb|--------------------------------------------------------------------|
Bb|----/14b---14b---10-10-10-10\8-8-8-8-8------------------------------|
Gb|--------------------------------------------------------------------|
Db|--------------------------------------------------------------------|
Ab|--------------------------------------------------------------------|
Db|--------------------------------------------------------------------|
the 8's and 10's are speed picking without bending. the 14's happen during 
the 0's in guitar 2's part and the 8's, 10's are hit when guitar 2 is playing 8's.

Guitar 2 (2:09-2:15)
eb|--------------------------------------------------------------------|
Bb|--------------------------------------------------------------------|
Gb|--------------------------------------------------------------------|
Db|----0~----0~----0~----0-0-0-0---------------------------------------|
Ab|----0~----0~----0~----0-0-0-0---------------------------------------|
Db|----0~----0~----0~----0-0-0-0---------------------------------------|

Guitar 2 (2:15-2:20)
eb|--------------------------------------------------------------------|
Bb|--------------------------------------------------------------------|
Gb|--------------------------------------------------------------------|
Db|----8-8-8-8-8-8-8-8-8-8-8-8-8---------------------------------------|
Ab|----8-8-8-8-8-8-8-8-8-8-8-8-8---------------------------------------|
Db|----8-8-8-8-8-8-8-8-8-8-8-8-8---------------------------------------|


Both Guitars (2:20-2:25)
eb|--------------------------------------------------------------------|
Bb|--------------------------------------------------------------------|
Gb|--------------------------------------------------------------------|
Db|----0~--------------------------------------------------------------|
Ab|----0~--------------------------------------------------------------|
Db|----0~--------------------------------------------------------------|

Both Guitars (2:25-2:48)
eb|--------------------------------------------------------------------|
Bb|-------------6--------------------------6---------------------------|
Gb|-------------9--------------------------9---------------------------|
Db|----0--0-0-0---7-8-7-8-10-12\--0--0-0-0---7-8-8-10\-----------------|
Ab|----0--0-0-0---7-8-7-8-10-12\--0--0-0-0---7-8-8-10\-----------------|
Db|----0--0-0-0---7-8-7-8-10-12\--0--0-0-0---7-8-8-10\-----------------|x5
you can do the 6,9 thing if you want, i didnt hear it until i started tabbing
 the song but if you do the 6,9 know that the last time through you dont do it.

Both Guitars (2:48-2:52)
eb|--------------------------------------------------------------------|
Bb|--------------------------------------------------------------------|
Gb|--------------------------------------------------------------------|
Db|----0-0-000-0-0-00--------------------------------------------------|
Ab|----0-0-000-0-0-00--------------------------------------------------|
Db|----0-0-000-0-0-00--------------------------------------------------|x2
palm mute after each strike.

Guitar 1 (2:52-3:00)
eb|--------------------------------------------------------------------|
Bb|----6-6-666-6-6-66--------------------------------------------------|
Gb|----9-9-999-9-9-99--------------------------------------------------|
Db|--------------------------------------------------------------------|
Ab|--------------------------------------------------------------------|
Db|--------------------------------------------------------------------|x2
palm mute after each strike

Guitar 2 (2:52-3:00)
eb|--------------------------------------------------------------------|
Bb|--------------------------------------------------------------------|
Gb|--------------------------------------------------------------------|
Db|----0-0-000-0-0-00--------------------------------------------------|
Ab|----0-0-000-0-0-00--------------------------------------------------|
Db|----0-0-000-0-0-00--------------------------------------------------|x2
palm mute after each strike


************************************

| /   slide up
| \   slide down
| h   hammer-on
| p   pull-off
| ~   vibrato
| +   harmonic
| x   Mute note
| b   Bend
| pb  Pre-bend
| br  Bend release
| pbr Pre-bend release
| brb Bend release bend

************************************
please comment with corrections i will put up a tab of
 "I Don't Speak To Dead Men" within the next week or 2. Enjoy





Comments


Popular Four Letter Lie tabs & chords
Naked Girl Avalanche Bass Tabs
Firecracker 1 Chords
Cake Eater Tabs
Firecracker 2 Tabs
Firecracker 3 Tabs
Firecracker 5 Tabs
Naked Girl Avalanche Tabs
Nothing But A Ghost Tabs
Rocky Loves Emily Tabs
Firecracker Ukulele


Song lyrics



↑ Back to top | Tablatures and chords are parodies/interpretations of the original songs. You may use it for private study, scholarship, research or language learning purposes only
© 2014 AZChords.com Contact us | Privacy policy | DMCA | Add/correct tabs | Request tabs | Top 50 tabs