» » »

Firecracker Tabs (ver.2)

Artists:  A B C D E F G H I J K L M N O P Q R S T U V W X Y Z # 

Firecracker Tabs (ver.2)

Four Letter Lie
Rating:
0/5 (0 votes)

Tabs too difficult? Try these video lessons and learn fast.
                -------------------------------------------------------------------------------
                             Firecracker solo - Four Letter Lie
-------------------------------------------------------------------------------
Tuning:Db Ab Db Gb Bb Eb

eb|----------------------------12^--12^--10-----------------------------------|
Bb|-------8p5/------8p5--8/12-----------------------12p10--10-----------------|
Gb|------------------------------------------------------12--12-9-------------|
Db|---------------------------------------------------------------------------|
Ab|---------------------------------------------------------------------------|
Db|---------------------------------------------------------------------------|

eb|--19-12--12-15--12----------------12-----12-15-12--------12-----12-15-12---|
Bb|-------15-----15------------12-12---12-15-----------12-12--12-15-----------|
Gb|---------------------------------------------------------------------------|
Db|---------------------------------------------------------------------------|
Ab|---------------------------------------------------------------------------|
Db|---------------------------------------------------------------------------|

eb|------17^---15-17~---15~---12~---------------------------------------------|
Bb|---------------------------------------------------------------------------|
Gb|-------------------------------------------------------------x-x-----------|
Db|---------------------------------14/12-----------------------x-x-----------|
Ab|---------------------------------------12\10\7/10/12—10~-----x-x-10\-------|
Db|---------------------------------------------------------------------------|

| /  slide up
| \  slide down
| h  hammer-on
| p  pull-off
| ~  vibrato
| +  harmonic
| x  Mute note
| ^  bend
            
Tabs too difficult? Try these video lessons and learn fast.




comments powered by Disqus
↑ Back to top | Tablatures and chords are parodies/interpretations of the original songs. You may use it for private study, scholarship, research or language learning purposes only