>
 >
Feel Like Fame

Feel Like Fame Guitar Tabs

Four Letter Lie - Feel Like Fame chords, tabs, tablatures, lyrics

Guitar lessons | Add/correct | Request | Top 50 tabs Artists:  A B C D E F G H I J K L M N O P Q R S T U V W X Y Z 0-9

Feel Like Fame Guitar Tabs – Four Letter Lie

CD, Sheet music, Poster

Do you like Feel Like Fame? Share with your friends now
Tabs
BAND: Four Letter Lie
TUNING: Db Ab Db Gb Bb eb
KEY:
~ = Let Ring
. = Palm Mute
x = mute
h = hammer on
* = harmonic

I've tried to tab this out to the best of my ability! Hope you all enjoy this tab. If 
ENJOY

Gtr I (Kevin)
Intro: (Clean)
|----------------------------------------------------|
|----------------------------------------------------|
|--5-5-5-5-5-5-5-5-5-5-5-5--5-5-5-5-5-5-5-5-5-5-5-5--|
|--5-5-5-5-5-5-5-5-5-5-5-5--5-5-5-5-5-5-5-5-5-5-5-5--|
|--3-3-3-3-3-3-3-3-3-3-3-3--3-3-3-3-3-3-3-3-3-3-3-3--|
|---------------------------3-3-3-3-3-3-3-3-3-3-3-3--|

|--------------------------------|
|--------------------------------|
|--5-5-5-5-5-5-5-5-5-5-5-5--5~~--|
|--5-5-5-5-5-5-5-5-5-5-5-5--5~~--|
|--x-x-x-x-x-x-x-x-x-x-x-x--3~~--|
|--7-7-7-7-7-7-7-7-7-7-7-7--3~~--|

(Distorted)
|-------------------------------------------|
|-------------------------------------------|
|--5-5-5-4-5--5-5-5-4-5--------5-5-5-5-5-5--|
|--5-5-5-5-5--5-5-5-5-5--5--7--5-5-5-5-5-5--|
|--3-3-3-3-3--3-3-3-3-3--5--7--3-3-3-3-3-3--|
|-------------3-3-3-3-3--5--7--3-3-3-3-3-3--|

|------------------------------|
|--8-8-8-8-8-8-8-8-------------|
|--5-5-5-5-5-5-5-5-------------|
|--5-5-5-5-5-5-5-5--2--3--5~~--|
|-------------------2--3--5~~--|
|-------------------2--3--5~~--|

Verse
|--0~~~~---------------------0~0~0~----------|
|--0~~~~---------------------0~0~0~----------|
|--5~~~~------------------4~-4~4~4~----------|
|--5~~~~--3-3-3-3-3-3-3-3-5~--------5-5-5-5--|
|--0~~~~--3-3-3-3-3-3-3-3-0~--------3-3-3-3--|
|---------3-3-3-3-3-3-3-3-----------3-3-3-3--|

|--0~~~~-----------------------------------------------|
|--0~~~~------------------------0~~--------------------|
|--5~~~~--------------------55--5~~--------------------|
|--5~~~~-----5--2-----5--2--55--5~~-----5--2-----5--2--|
|--0~~~~--------------------00--0~~--------------------|
|---------3--------5-----------------3--------5--------|
P.M                         ..

Pre-Chorus
|----------------------------3--------------|
|-------------------------------------------|
|-------------------------------4--5--4-----|
|--3-3-3-3-3-3-3-3-3-3-3-3---------------5--|
|--3-3-3-3-3-3-3-3-3-3-3-3------------------|
|--3-3-3-3-3-3-3-3-3-3-3-3------------------|

Chorus (Clean)
|-----------3-----------------3------|
|-------3-----3---3-------3-----3----|
|--4-h5---5-----5-----4h5---5-----5--|
|------------------------------------|
|------------------------------------|
|------------------------------------|

|-----------3-----------------3------|
|-------3-----3---3-------3-----3----|
|--4-h5---5-----5-----4h5---5-----5--|
|------------------------------------|
|------------------------------------|
|------------------------------------|

|-----------3-----------------3------|
|-------3-----3---3-------3-----3----|
|--4-h5---5-----5-----4h5---5-----5--|
|------------------------------------|
|------------------------------------|
|------------------------------------|

|------------------------------------------|
|------------------------------------------|
|--5-5-5-5--7-7-7-7--9-9-9-9--10-10-10-10--|
|--x-x-x-x--x-x-x-x--x-x-x-x---x--x--x--x--|
|--3-3-3-3--5-5-5-5--7-7-7-7---8--8--8--8--|
|------------------------------------------|

|-----------3-----------------3------|
|-------3-----3---3-------3-----3----|
|--4-h5---5-----5-----4h5---5-----5--|
|------------------------------------|
|------------------------------------|
|------------------------------------|

|-----------3-----------------3------|
|-------3-----3---3-------3-----3----|
|--4-h5---5-----5-----4h5---5-----5--|
|------------------------------------|
|------------------------------------|
|------------------------------------|

|-----------3-----------------3------|
|-------3-----3---3-------3-----3----|
|--4-h5---5-----5-----4h5---5-----5--|
|------------------------------------|
|------------------------------------|
|------------------------------------|

|------------------------------|
|--8-8-8-8-8-8-8-8-------------|
|--5-5-5-5-5-5-5-5-------------|
|--5-5-5-5-5-5-5-5--2--3--5~~--|
|-------------------2--3--5~~--|
|-------------------2--3--5~~--|

Verse 2
|-------------------------------------------------------|
|-------------------------------------------------------|
|---------------------------------5*--------------------|
|--5-5-5-5-5-5-5-5-5-5-5-5-5-5-5--5*-----5--2-----5--2--|
|--0-0-0-0-0-0-0-0-0-0-0-0-0-0-0------------------------|
|-------------------------------------3--------5--------|
P.M. . . . . . . . . . . . . . .

|-----------------------------------------------------|
|--8-8-8-8-8-8-8-8-5-5-5-5-5-5-5-5--------------------|
|--5-5-5-5-5-5-5-5-5-5-5-5-5-5-5-5--------------------|
|--------------------------------------5--2-----5--2--|
|-----------------------------------------------------|
|-----------------------------------3--------5--------|

Pre-Chorus
|----------------------------3--------------|
|-------------------------------------------|
|-------------------------------4--5--4-----|
|--3-3-3-3-3-3-3-3-3-3-3-3---------------5--|
|--3-3-3-3-3-3-3-3-3-3-3-3------------------|
|--3-3-3-3-3-3-3-3-3-3-3-3------------------|

|-----------3-----------------3------|
|-------3-----3---3-------3-----3----|
|--4-h5---5-----5-----4h5---5-----5--|
|------------------------------------|
|------------------------------------|
|------------------------------------|

Chorus (Clean)
|-----------3-----------------3------|
|-------3-----3---3-------3-----3----|
|--4-h5---5-----5-----4h5---5-----5--|
|------------------------------------|
|------------------------------------|
|------------------------------------|

|-----------3-----------------3------|
|-------3-----3---3-------3-----3----|
|--4-h5---5-----5-----4h5---5-----5--|
|------------------------------------|
|------------------------------------|
|------------------------------------|

|-----------3-----------------3------|
|-------3-----3---3-------3-----3----|
|--4-h5---5-----5-----4h5---5-----5--|
|------------------------------------|
|------------------------------------|
|------------------------------------|

|------------------------------------------|
|------------------------------------------|
|--5-5-5-5--7-7-7-7--9-9-9-9--10-10-10-10--|
|--x-x-x-x--x-x-x-x--x-x-x-x---x--x--x--x--|
|--3-3-3-3--5-5-5-5--7-7-7-7---8--8--8--8--|
|------------------------------------------|

|-----------3-----------------3------|
|-------3-----3---3-------3-----3----|
|--4-h5---5-----5-----4h5---5-----5--|
|------------------------------------|
|------------------------------------|
|------------------------------------|

|-----------3-----------------3------|
|-------3-----3---3-------3-----3----|
|--4-h5---5-----5-----4h5---5-----5--|
|------------------------------------|
|------------------------------------|
|------------------------------------|

|-----------3-----------------3------|
|-------3-----3---3-------3-----3----|
|--4-h5---5-----5-----4h5---5-----5--|
|------------------------------------|
|------------------------------------|
|------------------------------------|

|-------------------|
|--8-8-8-8-8-8-8-8--|
|--5-5-5-5-5-5-5-5--|
|--5-5-5-5-5-5-5-5--|
|-------------------|
|-------------------|

Break Down
|--------------------------|
|--------------------------|
|--------------------------|
|--7-7-7-7---5~~~~--5-5-5--|
|--7-7-7-7----------5-5-5--|
|--7-7-7-7----------5-5-5--|
P.M                 . . .

|-------------------------------------------------------|
|-------------------------------------------------------|
|-------------------------------------------------------|
|--3-3-3-3----3-3-3------7-7-7-7---5~~~~--7-7-7-7-7--5--|
|--3-3-3-3----3-3-3------7-7-7-7----------7-7-7-7-7--5--|
|--3-3-3-3----3-3-3------7-7-7-7----------7-7-7-7-7--5--|
P.M                                                  .

|--------------------------------------------|
|--------------------------------------------|
|--------------------------------------------|
|--3-3-3-3----3-3-3----3-3----3-3-3-3/5-5-5--|
|--3-3-3-3----3-3-3----3-3----3-3-3-3/5-5-5--|
|--3-3-3-3----3-3-3----3-3----3-3-3-3/5-5-5--|

Bridge
|--------------------------------------------------------------------|
|--------------------------------------------------------------------|
|--------------------------------------------------------------------|
|--5-5-5-5-5-5-5-5-5-5-5-5-5-5-5-5--3-3-3-3-3-3-3-3-3-3-3-3-3-3-3-3--|
|--3-3-3-3-3-3-3-3-3-3-3-3-3-3-3-3--3-3-3-3-3-3-3-3-3-3-3-3-3-3-3-3--|
|-----------------------------------3-3-3-3-3-3-3-3-3-3-3-3-3-3-3-3--|
P.M. . . . . . . . . . . . . . . .  . . . . . . . . . . . . . . . .

|--------------------------------------------------------------------|
|--------------------------------------------------------------------|
|--------------------------------------------------------------------|
|--7-7-7-7-7-7-7-7-7-7-7-7-7-7-7-7--3-3-3-3-3-3-3-3-3-3-3-3-3-3-3-3--|
|--7-7-7-7-7-7-7-7-7-7-7-7-7-7-7-7--3-3-3-3-3-3-3-3-3-3-3-3-3-3-3-3--|
|--7-7-7-7-7-7-7-7-7-7-7-7-7-7-7-7--3-3-3-3-3-3-3-3-3-3-3-3-3-3-3-3--|
P.M. . . . . . . . . . . . . . . .  . . . . . . . .

Chorus (Clean)
|-----------3-----------------3------|
|-------3-----3---3-------3-----3----|
|--4-h5---5-----5-----4h5---5-----5--|
|------------------------------------|
|------------------------------------|
|------------------------------------|

|-----------3-----------------3------|
|-------3-----3---3-------3-----3----|
|--4-h5---5-----5-----4h5---5-----5--|
|------------------------------------|
|------------------------------------|
|------------------------------------|

|-----------3-----------------3------|
|-------3-----3---3-------3-----3----|
|--4-h5---5-----5-----4h5---5-----5--|
|------------------------------------|
|------------------------------------|
|------------------------------------|

|-----------------------|
|-----------------------|
|--5-5-5-5--7-7-7-7--9--|
|--x-x-x-x--x-x-x-x--x--|
|--3-3-3-3--5-5-5-5--7--|
|-----------------------|

Ending (Key Change)
|-----------5-----------------5------|
|-------5-----5---5-------5-----5----|
|--6-h7---7-----7-----6h7---7-----7--|
|------------------------------------|
|------------------------------------|
|------------------------------------|

|-----------5-----------------5------|
|-------5-----5---5-------5-----5----|
|--6-h7---7-----7-----6h7---7-----7--|
|------------------------------------|
|------------------------------------|
|------------------------------------|

|-----------5-----------------5------|
|-------5-----5---5-------5-----5----|
|--6-h7---7-----7-----6h7---7-----7--|
|------------------------------------|
|------------------------------------|
|------------------------------------|

|----------------------------------------------|
|----------------------------------------------|
|--7-7-7-7--9-9-9-9--11-11-11-11--12-12-12-12--|
|--x-x-x-x--x-x-x-x---x--x--x--x---x--x--x--x--|
|--5-5-5-5--7-7-7-7---9--9--9--9--10-10-10-10--|
|----------------------------------------------|

|-----------5-----------------5------|
|-------5-----5---5-------5-----5----|
|--6-h7---7-----7-----6h7---7-----7--|
|------------------------------------|
|------------------------------------|
|------------------------------------|

|-----------5-----------------5------|
|-------5-----5---5-------5-----5----|
|--6-h7---7-----7-----6h7---7-----7--|
|------------------------------------|
|------------------------------------|
|------------------------------------|

|-----------5-----------------5------|
|-------5-----5---5-------5-----5----|
|--6-h7---7-----7-----6h7---7-----7--|
|------------------------------------|
|------------------------------------|
|------------------------------------|

|-----------5-----------------5------|
|-------5-----5---5-------5-----5----|
|--6-h7---7-----7-----6h7---7-----7--|
|------------------------------------|
|------------------------------------|
|------------------------------------|

|----------------------------------|
|----------------------------------|
|----------------------------------|
|--4---5---9---7----4---5---7~~~~--|
|--4---5---9---7----4---5---7~~~~--|
|--4---5---9---7----4---5---7~~~~--|

Gtr II (Connor)
Intro
|----------------------------------------------------|
|----------------------------------------------------|
|----------------------------------------------------|
|----------------------------------------------------|
|----------------------------------------------------|
|----------------------------------------------------|

|--------------------------------|
|--------------------------------|
|--------------------------------|
|--------------------------------|
|--------------------------------|
|--------------------------------|

(Distorted)
|-------------------------------------------|
|-------------------------------------------|
|--5-5-5-4-5--5-5-5-4-5--------5-5-5-5-5-5--|
|--5-5-5-5-5--5-5-5-5-5--5--7--5-5-5-5-5-5--|
|--3-3-3-3-3--3-3-3-3-3--5--7--3-3-3-3-3-3--|
|-------------3-3-3-3-3--5--7--3-3-3-3-3-3--|

|----------------------------------------|
|----------------------------------------|
|----------------------------------------|
|--2-2--3-3--7-7--5-5-5-5----2--3--5~~~--|
|--2-2--3-3--7-7--5-5-5-5----2--3--5~~~--|
|--2-2--3-3--7-7--5-5-5-5----2--3--5~~~--|

Verse
|--0~~~~-----------------------0~0~0~----------|
|--0~~~~-----------------------0~0~0~----------|
|--5~~~~--------------------4~-4~4~4~----------|
|--5~~~~--3-3-3-3-3-3-3-3---5~--------5-5-5-5--|
|--0~~~~--3-3-3-3-3-3-3-3---0~--------3-3-3-3--|
|---------3-3-3-3-3-3-3-3-------------3-3-3-3--|

|--0~~~~-----------------------------------------------|
|--0~~~~------------------------0~~--------------------|
|--5~~~~--------------------55--5~~--------------------|
|--5~~~~-----5--2-----5--2--55--5~~-----5--2-----5--2--|
|--0~~~~--------------------00--0~~--------------------|
|---------3--------5-----------------3--------5--------|
P.M                         ..

Pre-Chorus
|--------------------------------------------------------|
|--------------------------------------------------------|
|--------------------------------------------------------|
|--3-3-3-3-3-3-3-3-3-3-3--3---5-5-5-5-5-5-5-5-5-5--5--5--|
|--3-3-3-3-3-3-3-3-3-3-3--3---5-5-5-5-5-5-5-5-5-5--5--5--|
|--3-3-3-3-3-3-3-3-3-3-3--3---5-5-5-5-5-5-5-5-5-5--5--5--|

Chorus
|----------------------------------------------------|
|----------------------------------------------------|
|--5-5-5-5-5-5-5-5-5-5-5-5---------------------------|
|--5-5-5-5-5-5-5-5-5-5-5-5--3-3-3-3-3-3-3-3-3-3-3-3--|
|--3-3-3-3-3-3-3-3-3-3-3-3--3-3-3-3-3-3-3-3-3-3-3-3--|
|---------------------------3-3-3-3-3-3-3-3-3-3-3-3--|

|----------------------------------------------------|
|----------------------------------------------------|
|----------------------------------------------------|
|--7-7-7-7-7-7-7-7-7-7-7-7--3-3-3-3-3-3-3-3-x-x-x-x--|
|--7-7-7-7-7-7-7-7-7-7-7-7--3-3-3-3-3-3-3-3-x-x-x-x--|
|--7-7-7-7-7-7-7-7-7-7-7-7--3-3-3-3-3-3-3-3-x-x-x-x--|

|----------------------------------------------------|
|----------------------------------------------------|
|--5-5-5-5-5-5-5-5-5-5-5-5---------------------------|
|--5-5-5-5-5-5-5-5-5-5-5-5--7-7-7-7-7-7-7-7-7-7-7-7--|
|--3-3-3-3-3-3-3-3-3-3-3-3--7-7-7-7-7-7-7-7-7-7-7-7--|
|---------------------------7-7-7-7-7-7-7-7-7-7-7-7--|

|---------------------------|
|---------------------------|
|---------------------------|
|--3-3-3-3-3-3-3-3-3-3-3-3--|
|--3-3-3-3-3-3-3-3-3-3-3-3--|
|--3-3-3-3-3-3-3-3-3-3-3-3--|

|---------------------------------------|
|---------------------------------------|
|---------------------------------------|
|--2-2--3-3--7-7--5-5-5-5---2--3--5~~~--|
|--2-2--3-3--7-7--5-5-5-5---2--3--5~~~--|
|--2-2--3-3--7-7--5-5-5-5---2--3--5~~~--|

Verse 2
|-------------------------------------------------------|
|-------------------------------------------------------|
|---------------------------------5*--------------------|
|---------------------------------5*-----5--2-----5--2--|
|-------------------------------------------------------|
|-------------------------------------3--------5--------|

|-----------------------------------------------------|
|-----------------------------------------------------|
|--5-5-5-5-5-5-5-5-5-5-5-5-5-5-5-5--------------------|
|--5-5-5-5-5-5-5-5-5-5-5-5-5-5-5-5-----5--2-----5--2--|
|-----------------------------------------------------|
|-----------------------------------3--------5--------|

Pre-Chorus
|--------------------------------------------------------|
|--------------------------------------------------------|
|--------------------------------------------------------|
|--3-3-3-3-3-3-3-3-3-3-3--3---5-5-5-5-5-5-5-5-5-5--5--5--|
|--3-3-3-3-3-3-3-3-3-3-3--3---5-5-5-5-5-5-5-5-5-5--5--5--|
|--3-3-3-3-3-3-3-3-3-3-3--3---5-5-5-5-5-5-5-5-5-5--5--5--|

Chorus
|----------------------------------------------------|
|----------------------------------------------------|
|--5-5-5-5-5-5-5-5-5-5-5-5---------------------------|
|--5-5-5-5-5-5-5-5-5-5-5-5--3-3-3-3-3-3-3-3-3-3-3-3--|
|--3-3-3-3-3-3-3-3-3-3-3-3--3-3-3-3-3-3-3-3-3-3-3-3--|
|---------------------------3-3-3-3-3-3-3-3-3-3-3-3--|

|----------------------------------------------------|
|----------------------------------------------------|
|----------------------------------------------------|
|--7-7-7-7-7-7-7-7-7-7-7-7--3-3-3-3-3-3-3-3-x-x-x-x--|
|--7-7-7-7-7-7-7-7-7-7-7-7--3-3-3-3-3-3-3-3-x-x-x-x--|
|--7-7-7-7-7-7-7-7-7-7-7-7--3-3-3-3-3-3-3-3-x-x-x-x--|

|----------------------------------------------------|
|----------------------------------------------------|
|--5-5-5-5-5-5-5-5-5-5-5-5---------------------------|
|--5-5-5-5-5-5-5-5-5-5-5-5--7-7-7-7-7-7-7-7-7-7-7-7--|
|--3-3-3-3-3-3-3-3-3-3-3-3--7-7-7-7-7-7-7-7-7-7-7-7--|
|---------------------------7-7-7-7-7-7-7-7-7-7-7-7--|

|---------------------------|
|---------------------------|
|---------------------------|
|--3-3-3-3-3-3-3-3-3-3-3-3--|
|--3-3-3-3-3-3-3-3-3-3-3-3--|
|--3-3-3-3-3-3-3-3-3-3-3-3--|

Break Down
|----------------------------------------------------|
|----------------------------------------------------|
|----------------------------------------------------|
|--2-2--3-3--7-7--5-5-5-5---7-7-7-7-----------5-5-5--|
|--2-2--3-3--7-7--5-5-5-5---7-7-7-7---7~~~~---5-5-5--|
|--2-2--3-3--7-7--5-5-5-5---7-7-7-7-----------5-5-5--|
P.M                                           . . .

|-------------------------------------------------------|
|-------------------------------------------------------|
|-------------------------------------------------------|
|--3-3-3-3----3-3-3------7-7-7-7----------7-7-7-7-7--5--|
|--3-3-3-3----3-3-3------7-7-7-7---7~~~~--7-7-7-7-7--5--|
|--3-3-3-3----3-3-3------7-7-7-7----------7-7-7-7-7--5--|
P.M                                                  .

|--------------------------------------------|
|--------------------------------------------|
|--------------------------------------------|
|--3-3-3-3----3-3-3----3-3----3-3-3-3/5-5-5--|
|--3-3-3-3----3-3-3----3-3----3-3-3-3/5-5-5--|
|--3-3-3-3----3-3-3----3-3----3-3-3-3/5-5-5--|

Bridge
|--------------------------------------------------------------------|
|--------------------------------------------------------------------|
|--------------------------------------------------------------------|
|--------------------------------------------------------------------|
|--------------------------------------------------------------------|
|--------------------------------------------------------------------|

|--------------------------------------------------------------------|
|--------------------------------------------------------------------|
|--------------------------------------------------------------------|
|-----------------------------------3-3-3-3-3-3-3-3-3-3-3-3-3-3-3-3--|
|-----------------------------------3-3-3-3-3-3-3-3-3-3-3-3-3-3-3-3--|
|-----------------------------------3-3-3-3-3-3-3-3-3-3-3-3-3-3-3-3--|
P.M                                 . . . . . . . .

Chorus
|----------------------------------------------------|
|----------------------------------------------------|
|--5-5-5-5-5-5-5-5-5-5-5-5---------------------------|
|--5-5-5-5-5-5-5-5-5-5-5-5--3-3-3-3-3-3-3-3-3-3-3-3--|
|--3-3-3-3-3-3-3-3-3-3-3-3--3-3-3-3-3-3-3-3-3-3-3-3--|
|---------------------------3-3-3-3-3-3-3-3-3-3-3-3--|

|----------------------------------------------------|
|----------------------------------------------------|
|----------------------------------------------------|
|--7-7-7-7-7-7-7-7-7-7-7-7--3-3-3-3-3-3-3-3-3-3-3-3--|
|--7-7-7-7-7-7-7-7-7-7-7-7--3-3-3-3-3-3-3-3-3-3-3-3--|
|--7-7-7-7-7-7-7-7-7-7-7-7--3-3-3-3-3-3-3-3-3-3-3-3--|

Ending (Key Change)
|----------------------------------------------------|
|----------------------------------------------------|
|--7-7-7-7-7-7-7-7-7-7-7-7---------------------------|
|--7-7-7-7-7-7-7-7-7-7-7-7--5-5-5-5-5-5-5-5-5-5-5-5--|
|--5-5-5-5-5-5-5-5-5-5-5-5--5-5-5-5-5-5-5-5-5-5-5-5--|
|---------------------------5-5-5-5-5-5-5-5-5-5-5-5--|

|----------------------------------------------------|
|----------------------------------------------------|
|----------------------------------------------------|
|--9-9-9-9-9-9-9-9-9-9-9-9--5-5-5-5-5-5-5-5-x-x-x-x--|
|--9-9-9-9-9-9-9-9-9-9-9-9--5-5-5-5-5-5-5-5-x-x-x-x--|
|--9-9-9-9-9-9-9-9-9-9-9-9--5-5-5-5-5-5-5-5-x-x-x-x--|

|----------------------------------------------------|
|----------------------------------------------------|
|--7-7-7-7-7-7-7-7-7-7-7-7---------------------------|
|--7-7-7-7-7-7-7-7-7-7-7-7--5-5-5-5-5-5-5-5-5-5-5-5--|
|--5-5-5-5-5-5-5-5-5-5-5-5--5-5-5-5-5-5-5-5-5-5-5-5--|
|---------------------------5-5-5-5-5-5-5-5-5-5-5-5--|

|----------------------------------------------------|
|----------------------------------------------------|
|----------------------------------------------------|
|--9-9-9-9-9-9-9-9-9-9-9-9--5-5-5-5-5-5-5-5-5-5-5-5--|
|--9-9-9-9-9-9-9-9-9-9-9-9--5-5-5-5-5-5-5-5-5-5-5-5--|
|--9-9-9-9-9-9-9-9-9-9-9-9--5-5-5-5-5-5-5-5-5-5-5-5--|

|-----------------------------------------|
|-----------------------------------------|
|-----------------------------------------|
|--4---5---9---7--x-x-x-x--4---5---7~~~~--|
|--4---5---9---7--x-x-x-x--4---5---7~~~~--|
|--4---5---9---7--x-x-x-x--4---5---7~~~~--|

And there you have it!





Comments


Popular Four Letter Lie tabs & chords
Naked Girl Avalanche Bass Tabs
Cake Eater Tabs
Daymaker Tabs
Firecracker Tabs
Firecracker 3 Tabs
Firecracker 5 Tabs
It's Coming This Way Tabs
Nothing But A Ghost Intro Tabs
Rocky Loves Emily Tabs
Think Of Your Favorite Place Tabs


Song lyrics



↑ Back to top | Tablatures and chords are parodies/interpretations of the original songs. You may use it for private study, scholarship, research or language learning purposes only
© 2014 AZChords.com Contact us | Privacy policy | DMCA | Add/correct tabs | Request tabs | Top 50 tabs