» » »

Four Letter Lie, Cake Eater Tabs (ver.1)

Artists:  A B C D E F G H I J K L M N O P Q R S T U V W X Y Z # 

Cake Eater Tabs (ver.1)

Four Letter Lie Tabs
 Rating:
4/5 (9 votes)
Cake Eater lessons Tabs too difficult? Try these video lessons and learn fast
                Easy song. decent band. deserve a little more recognition. got most of it right. even 
i cant figure out the beginning chord aha. comment and rate please. i worked hard on this.


intro-x4
Eb-----------------------------------------------------------------|
Bb-----------------------------------------------------------------|
Gb-----------------------------------------------------------------|
Db-0000000-8888888-3333333-5555555---------------------------------|
Ab-0000000-8888888-3333333-5555555---------------------------------|
Db-0000000-8888888-3333333-5555555---------------------------------|

guitar 2 intro. listen for the timing for when it comes in

Eb------------------------------------------------------------------|
Bb----6--6--6--6--6--6--6--6--6--6----------------------------------|
Gb--7--7--7--7--7--7--7--7--7--7--7---------------------------------|
Db------------------------------------------------------------------|
Ab------------------------------------------------------------------|
Db------------------------------------------------------------------|
p.m....................................

End on:

Eb-------------------------------------|
Bb-------------------------------------|
Gb---5~--------------------------------|
Db---5~--------------------------------|
Ab---3~--------------------------------|
Db---3~--------------------------------|

Verse-cant tell here just do this

Eb---------------------------------|
Bb---------------------------------|
Gb---------------------------------|
Db--0~-----------------------------|
Ab--0~-----------------------------|
Db--0~-----------------------------|

pre chorus-x2

Eb-------------------------------------------------------------------|
Bb----66666666666666666666--------5555555555555555555----------------|
Gb----77777777777777777777--------6666666666666666666----------------|
Db--0-----------------------5p3p0---------------------5p3p0----------|
Ab--0-----------------------5p3p0---------------------5p3p0----------|
Db--0-----------------------5p3p0---------------------5p3p0----------|

then:
Eb-----------------|
Bb-----------------|
Gb----10-10-10-10--|
Db----10-10-10-10--|
Ab----8--8--8--8---|
Db----8--8--8--8---|

Chorus:
guitar one- x4

Eb---------------------------------------------------------------|
Bb---------------------------------------------------------------|
Gb-10-10-10-10-10-10-10-555555-777777----------------------------|
Db-10-10-10-10-10-10-10-333333-555555----------------------------|
Ab-8--8--8--8--8--8--8--333333-555555----------------------------|
Db-8--8--8--8--8--8--8--333333-555555----------------------------|

Chorus-guitar 2- listen for timing

Eb-----------------------------------------------------------------|
Bb-----------------------------------------------------------------|
Gb--10-10-10-10-10-10-10-12-12-12-12-12-12-14-14-14-14-14-14-14----|
Db--x--x--x--x--x--x--x--x--x--x--x--x--x--x--x--x--x--x--x--x-----|
Ab--8--8--8--8--8--8--8--10-10-10-10-10-10-12-12-12-12-12-12-12----|
Db-----------------------------------------------------------------|

Eb---------------------------------------------|
Bb---------------------------------------------|
Gb--12-12-12-12-12-12--------------------------|
Db--x--x--x--x--x--x---------------------------|
Ab--10-10-10-10-10-10--------------------------|
Db---------------------------------------------|

Post-chorus riff: play this 4 times. i belive phaser? is the effect used the first 2 times.

Eb---------------------------------------------------|
Bb---------------------------------------------------|
Gb---------------------------------------------------|
Db---------------------------------------------------|
Ab---------3-5/7-8h7--10-8-7-8-----------------------|
Db--0-0-3h5----------8-------------------------------|

End on:
Eb----------------------------------------|
Bb----------------------------------------|
Gb----------------------------------------|
Db-5p0------------------------------------|
Ab-5p0------------------------------------|
Db-5p0------------------------------------|


play the prechorus again
play the chorus again

Bridge: some effects here

Eb--------------------------------------------------------------------------|
Bb--------------------------------------------------------------------------|
Gb----------------------------------------------------------------5~--------|
Db----------------------------------------------------------5--8--3~--------|
Ab------------------4-----------------7---------------------5--8--3~--------|
Db--0-0/12-0--0h5h8---0-0/12-0--0h5h8----0-0/12--0-0h5h8----5--8--3~--------|

Breakdown: x alot. figure out the strumming and where the palm mutes are

Eb---------------------------------------------|
Bb---------------------------------------------|
Gb---------------------------------------------|
Db--0----00000--0000---------------------------|
Ab--0----00000--0000---------------------------|
Db--0----00000--0000---------------------------|
p.m             ....


Then lead plays this:(TP means tremelo pick, which means to pick up and down as fast as possible)

Eb---10TP-12TP-13TP-15TP-17TP-10TP-12TP-13TP-15TP-18TP-21b22TP--|
Bb--------------------------------------------------------------|
Gb--------------------------------------------------------------|
Db--------------------------------------------------------------|
Ab--------------------------------------------------------------|
Db--------------------------------------------------------------|

Then play the breakdown again


Eb---------------------------------------------|
Bb---------------------------------------------|
Gb---------------------------------------------|
Db--0----00000--0000---------------------------|
Ab--0----00000--0000---------------------------|
Db--0----00000--0000---------------------------|
p.m             ....


play the Chorus again

then play this riff  and your done


Eb------------------------------------------------------------------|
Bb------------------------------------------------------------------|
Gb------------------------------------------------------------------|
Db-----------------------------------------------------------8/////-|
Ab---------3-5/7-8p7--10-8-7-8----------3-5/7-8p7---10-8-7---8/////-|
Db--0-0-3h5----------8----------0-0-3h5-----------8----------8/////-|

comment and rate please
            
Submit corrections

comments powered by Disqus
↑ Back to top | Four Letter Lie Tabs for Cake Eater. Lyrics for acoustic guitar and electric guitar. Tablatures and chords are parodies/interpretations of the original songs. You may use it for private study, scholarship, research or language learning purposes only