» » »

Through The Looking Glass Tabs (ver.1)

Artists:  A B C D E F G H I J K L M N O P Q R S T U V W X Y Z # 

Through The Looking Glass Tabs (ver.1)

For The Fallen Dreams
Rating:
3/5 (2 votes)

Tabs too difficult? Try these video lessons and learn fast.
                -------------------------------------------------------------------------------
             Through The Looking Glass- For the Fallen Dreams
-------------------------------------------------------------------------------
This is my first tab and the lines might be not completely straight but theyre perfectly
Let me know how it is.

Tuning: Drop A#
Intro
e|8-----------------------8--------------8---------------------8-----------|
B|---6----------------6------6-------6-------6-------6------6-----6------6-|
G|------9---------9--------------9---------------9------9-------------9----|
D|-----------10------------------------------------------------------------|
A|-------------------------------------------------------------------------|
E|-------------------------------------------------------------------------|

e|8------------------8--------8---------8--8----8-8-8-8-------|
B|--6------------6-----6---6-----6------6--6----6-6-6-6---X2--|
G|----9-------9----------9---------9----9--9----9-9-9-9-------|
D|--------10---------------------------10-10----10101010------|
A|------------------------------------------------------------|
E|------------------------------------------------------------|
Verse 1
e|-----------------------------------------------|
B|-----------------------------------------------|
G|-----------------------------------------------|
D|-------------------------------------------X2--|
A|-----------------------------------------------|
E|-000--0--0----000--000000--0--0---001b01/3-----|

REPEAT INTRO x1

REPEAT VERSE 1 X2

e|----------------------------------------------------------------------|
B|----------------------------------------------------------------------|
G|----------------------------------------------------------------------|
D|-00-1-0--43--0-0-0-1-0-0-0--------0-0-1-0-43-0-0-0-5-0-7-0-5-0-8--X3--|
A|-00-1-0--43--0-0-0-1-0-0-0-000000-0-0-1-0-43-0-0-0-5-0-7-0-5-0-8------|
E|-00-1-0--43--0-0-0-1-0-0-0-111111-0-0-1-0-43-0-0-0-3-0-5-0-3-0-6------|
   xx   x      x   x   x   x xxxxxx   x   x    x   x   x   x   x
e|-------------------------------------------------|
B|-------------------------------------------------|
G|-------------------------------------------------|
D|-1-0-0-1-0--0-0-0-000-0-0-1-0-0-1-0----------X4--|
A|-1-0-0-1-0--0-0-0-000-0-0-1-0-0-1-0-5555666------|
E|-1-0-0-1-0--0-0-0-000-0-0-1-0-0-1-0--------------|
       x      x x x xxx x x     x
e|---------------------------------------------------------------|
B|---------------------------------------------------------------|
G|---------------------------------------------------------------|
D|--0--00-0-000-0------------------------------------------------|
A|--0--00-0-000-0------1--11-1-111-1-11111111-1--11-1-111-1------|
E|--0--00-0-000-0------0--00-0-000-0-00000000-0--00-0-000-0---0--|
    x  xx x xxx x      x  xx x xxx x xxxxxxxx x  xx x xxx x    Repeat but insted of 
the last open, use this..
e|-------------------------------------------------------------------------------------|
B|-------------------------------------------------------------------------------------|
G|-------------------------------------------------------------------------------------|
D|-------------------------------------------------------------------------------------|
A|-------------------------------------------------------------------------------------|
E|-000-0-000-0-------------------------------------------------------------------------|
   xxx   xxx    Then repeat same rhythm, but instead of using the one on the 2nd string, 
all opens.

e|-5*-------5*---------------------------------------------------------------------|
B|-5*-------5*---------------------------------------------------------------------|
G|-5*-------5*---------------------------------------------------------------------|
D|-5*-------5*---------------------------------------------------------------------|
A|---------------------------------------------------------------------------------|
E|---------------------------------------------------------------------------------|
    Check song for rhythm for the following chords
e|---------------------------------------------------------------------------|--------------|
B|-11---8--------------------------------------------------------------------|--------------|
G|-10---7---------------------------X4---------------------------------------|--------------|
D|-10---7--------------------------------------------------------------------|--------------|
A|-8----5--------------------------------------------------------------------|0000----------|
E|-8----5----0000-0-000-0-000-0-0-0------0000-0-000-0-00-0-0-0-0000-0-000-0-001111----------|
             xxxx   xxx   xxx   x        xxxx   xxx   xx   x   xxxx   xxx   x
After playing that one time, repeat end part up to where the line is broken ^

e|------------------------------------|-----------------------------------------|
B|------------------------------------|-----------------------------------------|
G|--------7/9------9s10------10s-12---|-----------------------------------------|
D|-0------7/9------9s10------10s-12---|-----------------------------------------|
A|-0------5/7------7s-8-------8s-10---|-----------------------------------------|
E|-0-0000-----0000------0000----------|   <-Zeros change pattern----------------|
listen for rhythm for the following:  | X4
e|-------------8----------------------|--|
B|---------------6--------------------|--|
G|--10--9----------9------9-----------|--|
D|--10-10----------10--10---10--------|--|
A|--8--8------------------------------|--|
E|--8--8------------------------------|--|
 PLay 9+10 together^     Listen for pattern on the following:
e|---------------------------------------------------------------------------------|
B|--10---8-------------------------------------------------------------------------|
G|--10---10------------------------------------------------------------------------|
D|--8----8-------------------------------------------------------------------------|
A|--8----8-------------------------------------------------------------------------|
E|--8----8-------------------------------------------------------------------------|

e|---------------------------------------------|
B|---------------------------------------------|
G|-----------------------------------------X2--|
D|----------14-12------------------------------|
A|--0-7-8-0-------15-0-7-8-0-14-15-14-15-------|
E|---------------------------------------------|

e|---------------------------------------------------------------------------------|
B|-10-----10-----------------------------------------------------------------------|
G|-10-----10-----------------------------------------------------------------------|
D|-8------8------------------------------------------------------------------------|
A|-8------8------------------------------------------------------------------------|
E|-8------8------------------------------------------------------------------------|
Listen for the following rhythm:
e|----------------------------------------------|
B|-10---8----10---8----10----8---10----8--------|
G|-10---10---10---10---10---10---10---10--------|
D|-0----0----0----0----8----8----8----8-----x2--|
A|-0----0----0----0----8----8----8----8---------|
E|-0----0----0----0----8----8----8----8---------|

e|--------------------------------------------------------------------------------|
B|-------------------------------------------------10------------10-11-10---------|
G|------------------------------------------------------------------------10--X2--|
D|--------14-12------------14-15-----x2-----9-10------------9-10------------------|
A|0-7-8-0-------15-0-7-8-0-------15-------0------0------0-------------------------|
E|--------------------------------------------------------------------------------|
REPEAT TWICE

Outro
e|-----------------------------------------------------------------------------------|
B|---------------------10---------10s11-11p10----------------------------------------|
G|-------9h10p9---------------9----------------10p9----------------------------------|
D|--------------10-10------10--------------------------------------------------------|
A|-0-7-8-----------------------------------------------------------------------------|
E|-----------------------------------------------------------------------------------|

e|--------------------------------------8-----------------------------------------------|
B|-----------10h11p10---------8----8----------------------------------------------------|
G|--------------------10-9-10---10---10-------------------------------------------------|
D|---9-10-------------------------------------------------------------------------------|
A|-0------0-----------------------------------------------------------------------------|
E|--------------------------------------------------------------------------------------|

e|-----------------------------------------------------------------------------------|
B|---------------------10---------10s11-11p10----------------------------------------|
G|-------9h10p9---------------9----------------10p9----------------------------------|
D|--------------10-10------10--------------------------------------------------------|
A|-0-7-8-----------------------------------------------------------------------------|
E|-----------------------------------------------------------------------------------|


e|--------------------------------------8-----------------------------------------------|
B|-----------10h11p10---------8----8----------------------------------------------------|
G|--------------------10-9-10---10---10-------------------------------------------------|
D|---9-10-------------------------------------------------------------------------------|
A|-0------0-----------------------------------------------------------------------------|
E|--------------------------------------------------------------------------------------|

e|--------------------------------------------------------------------------------|
B|---------------------8------8---------------------------------------------------|
G|-------9h10p9----------10-9---10-9----------------------------------------------|
D|--------------10----------------------------------------------------------------|
A|-0-7-8--------------------------------------------------------------------------|
E|--------------------------------------------------------------------------------|

e|--------------------------------------8-----------------------------------------------|
B|-----------10h11p10---------8----8----------------------------------------------------|
G|--------------------10-9-10---10---10-------------------------------------------------|
D|---9-10-------------------------------------------------------------------------------|
A|-0------0-----------------------------------------------------------------------------|
E|--------------------------------------------------------------------------------------|

e|--------------------------------------------------------------------------------|
B|---------------------10-8------8-10---------------------------------------------|
G|-------9h10p9-------------10-9--------------------------------------------------|
D|--------------10----------------------------------------------------------------|
A|-0-7-8--------------------------------------------------------------------------|
E|--------------------------------------------------------------------------------|

e|--------------------------------------8-----------------------------------------------|
B|-----------10h11p10---------8----8----------------------------------------------------|
G|--------------------10-9-10---10---10-------------------------------------------------|
D|---9-10-------------------------------------------------------------------------------|
A|-0------0-----------------------------------------------------------------------------|
E|--------------------------------------------------------------------------------------|

e|--------------------------------------------------------------------------------|
B|---------------------10-8------8-10---------------------------------------------|
G|-------9h10p9-------------10-9--------------------------------------------------|
D|--------------10----------------------------------------------------------------|
A|-0-7-8--------------------------------------------------------------------------|
E|--------------------------------------------------------------------------------|

e|--------------------------------------8-----------------------------------------------|
B|-----------10h11p10---------8----8----------------------------------------------------|
G|--------------------10-9-10---10---10-------------------------------------------------|
D|---9-10-------------------------------------------------------------------------------|
A|-0------0-----------------------------------------------------------------------------|
E|--------------------------------------------------------------------------------------|

e|------------------------------------------------------------------------------|
B|------------------------------------------------------------------------------|
G|------------------------------------------------------------------------------|
D|-0----------------------------------------------------------------------------|
A|-0----------------------------------------------------------------------------|
E|-0----------------------------------------------------------------------------|


| /  slide up
| \  slide down
| h  hammer-on
| p  pull-off
| ~  vibrato
| *  harmonic
| x  Mute note
            
Tabs too difficult? Try these video lessons and learn fast.




comments powered by Disqus
↑ Back to top | Tablatures and chords are parodies/interpretations of the original songs. You may use it for private study, scholarship, research or language learning purposes only