» » »

This World Around Us Tabs (ver.1)

Artists:  A B C D E F G H I J K L M N O P Q R S T U V W X Y Z # 

This World Around Us Tabs (ver.1)

For The Fallen Dreams
Rating:
3/5 (3 votes)

Hard to play? Try these video lessons and learn fast.
                For the Fallen Dreams
Changes 2008


Note: I could not put all of the timing in the tab so
      you will need to listen to the song for the timing

Tuning: Drop A#

|-----------------------8----------------------------------------|
|-------------------6-------6-------------------6-6----6-6----6--|
|-----------------9---9---9---9-----------------9-9----9-9----9--|  x4
|----------------------------------------------------------------|
|----------------------------------------------------------------|
|--00000-000-0-0-----------------00000-000-0-0------00-----00----|


|--------------------------------------------------------------|
|--------------------------------------------------------------|
|--------------------------------------------------------------|  x2 
|--------------------------------------------------------------|
|-----------------------------------------------------0--0--0--|
|--00000-000-0-0---000---000-----00000-000-0-0---000--1--1--1--|


|---------------------|
|---------------------|
|---------------------|   x\\\\0 - a slide to open
|-----------x\\\\0----|
|--0-0-0----x\\\\0----|
|--0-0-0----x\\\\0----|


|--------------------------------------------------------------|
|--6-----------6----------6--------------6--------6------------|
|--9----9-----------5-----9--------------9----9------9---------|
|--0----------------------0--------------0---------------------|
|-------------------------------------------------------0-0-0--|
|-------------------------------------------------------0-0-0--|


|----------------------------------------------------------------|
|----------------------------------------------------------------|
|----------------------------------------------------------------|
|----------------------------------------------------------------|
|---------------------------1/4\3-------------------------1/4\3--|
|----00000-000-0-0-000-0-0--1/4\3--00000-000-0-0-000-0-0--1/4\3--|


|------------------------------------------------------------------|
|------------------------------------------------------------------|
|------------------------------------------------------------------|
|------------------------------------------------------------------|
|---------------------------1/4\3---------------------------0-0-0--|
|--0000000-0000000-0000000--1/4\3--0000000-0000000-0000000--1-1-1--|


|------------------------------------------------------------------|
|------------------------------------------------------------------|
|------------------------------------------------------------------|
|------------------------------------------------------------------|
|---------------------------1/4\3---------------------------0-0-0--|
|--0000000-0000000-0000000--1/4\3--0000000-0000000-0000000--0-0-0--|


|----------------------|
|--6-----------6-------|
|--9----9-----------5--|  x6
|--0-------------------|
|----------------------|
|----------------------|
            
Hard to play? Try these video lessons and learn fast. | Correct




comments powered by Disqus
↑ Back to top | Tablatures and chords are parodies/interpretations of the original songs. You may use it for private study, scholarship, research or language learning purposes only