>
 >
Let Go

Let Go Guitar Tabs

For The Fallen Dreams - Let Go chords, tabs, tablatures, lyrics

Guitar lessons | Add/correct | Request | Top 50 tabs Artists:  A B C D E F G H I J K L M N O P Q R S T U V W X Y Z 0-9

Let Go Guitar Tabs – For The Fallen Dreams

CD, Sheet music, Poster

Do you like Let Go? Share with your friends now
Tabs
Tuning: Drop A#




Intro:

              PM PM   PM   PM   PM PM   PM PM   PM  
C ||-------|---------------------------------------|
G ||-------|---------------------------------------|
D#||-------|---------------------------------------|
A#||-------|---------------------------------------|
F ||-------|--0--0--L-0----0--L-0--0----0--0----0--|
A#||-------|--1--1--L-1----1--L-1--1----1--1----1--|


     PM   PM   PM PM           PM PM   PM   PM   PM PM   PM PM PM PM  
----------------------------|----------------------------------------|
----------------------------|----------------------------------------|
----------------------------|----------------------------------------|
----------------------------|----------------------------------------|
-----0----0----0--0---------|--0--0----0----0----0--0----0--0--0--0--|
-----1----1----1--1---------|--1--1----1----1----1--1----1--1--1--1--|


     PM   PM   PM PM   PM   PM PM      PM PM   PM   PM   PM PM   PM PM   PM     
------------------------------------|---------------------------------------|
------------------------------------|---------------------------------------|
------------------------------------|---------------------------------------|
------------------------------------|---------------------------------------|
-----0----0----0--0----0----0--0----|--0--0----0----0----0--0----0--0----0--|
-----1----1----1--1----1----1--1----|--1--1----1----1----1--1----1--1----1--|


     PM   PM   PM PM           PM PM   PM   PM   PM PM   PM PM PM PM  
----------------------------|----------------------------------------|
----------------------------|----------------------------------------|
----------------------------|----------------------------------------|
----------------------------|----------------------------------------|
-----0----0----0--0---------|--0--0----0----0----0--0----0--0--0--0--|
-----1----1----1--1---------|--1--1----1----1----1--1----1--1--1--1--|




                                    Verse:
     PM   PM   PM PM PM PM               PM PM    PM PM    PM     
-----------------------------------|--------------------------|
-----------------------------------|--------------------------|
-----------------------------------|--------------------------|
-----------------------------------|--------------------3-----|
-----0----0----0--0--0--0----------|--4--0--0--0--0--0--1--0--|
-----1----1----0--0--0--0----------|--4--0--0--0--0--0-----0--|


  PM    PM PM    PM    PM       PM PM    PM PM    PM  
--------------------------|--------------------------|
--------------------------|--------------------------|
--------------------------|--------------------------|
--------------------------|--------------------3-----|
--0--0--0--0--4--0--1--0--|--4--0--0--0--0--0--1--0--|
--0--0--0--0--4--0--1--0--|--4--0--0--0--0--0-----0--|


  PM    PM PM    PM    PM       PM PM    PM PM    PM  
--------------------------|--------------------------|
--------------------------|--------------------------|
--------------------------|--------------------------|
--------------------------|--------------------3-----|
--0--0--0--0--4--0--1--0--|--4--0--0--0--0--0--1--0--|
--0--0--0--0--4--0--1--0--|--4--0--0--0--0--0-----0--|


  PM    PM PM    PM    PM       PM PM    PM PM    PM  
--------------------------|--------------------------|
--------------------------|--------------------------|
--------------------------|--------------------------|
--------------------------|--------------------3-----|
--0--0--0--0--4--0--1--0--|--4--0--0--0--0--0--1--0--|
--0--0--0--0--4--0--1--0--|--4--0--0--0--0--0-----0--|




	Breakdown:
  PM    PM PM    PM    PM    PM PM PM   PM PM PM             
--------------------------|---------------------------------|
--------------------------|---------------------------------|
--------------------------|---------------------------------|
--------------------------|---------------------------------|
--0--1--0--0--4--0--1--0--|--0--0--0----0--0--0-------------|
--0--1--0--0--4--0--1--0--|--0--0--0----0--0--0-------------|


           PM PM PM   PM PM PM      PM PM PM   PM PM PM             
---------------------------------|---------------------------------|
---------------------------------|---------------------------------|
---------------------------------|---------------------------------|
---------------------------------|---------------------------------|
-----------0--0--0----0--0--0----|--0--0--0----0--0--0-------------|
-----------0--0--0----0--0--0----|--0--0--0----0--0--0-------------|


           PM  PM  PM    PM PM PM   PM PM PM             
----------------------|---------------------------------|
----------------------|---------------------------------|
----------------------|---------------------------------|
----------------------|---------------------------------|
-----------1---1---1--|--0--0--0----0--0--0-------------|
-----------1---1---1--|--0--0--0----0--0--0-------------|


           PM PM PM   PM PM PM      PM PM PM   PM PM PM             
---------------------------------|---------------------------------|
---------------------------------|---------------------------------|
---------------------------------|---------------------------------|
---------------------------------|---------------------------------|
-----------0--0--0----0--0--0----|--0--0--0----0--0--0-------------|
-----------0--0--0----0--0--0----|--0--0--0----0--0--0-------------|


           PM  PM PM PM PM    PM PM PM   PM PM PM   PM PM PM   PM PM PM      
---------------------------|----------------------------------------------|
---------------------------|----------------------------------------------|
---------------------------|----------------------------------------------|
---------------------------|----------------------------------------------|
-----------1---1--1--1--1--|--0--0--0----0--0--0----0--0--0----0--0--0----|
-----------1---1--1--1--1--|--0--0--0----0--0--0----0--0--0----0--0--0----|


  PM PM PM   PM PM PM   PM PM PM PM PM PM PM PM  
------------------------------------------------|
------------------------------------------------|
------------------------------------------------|
------------------------------------------------|
--0--0--0----0--0--0----1--1--1--1--1--1--1--1--|
--0--0--0----0--0--0----1--1--1--1--1--1--1--1--|


  PM PM PM   PM PM PM   PM PM PM   PM PM PM    
----------------------------------------------|
----------------------------------------------|
----------------------------------------------|
----------------------------------------------|
--0--0--0----0--0--0----0--0--0----0--0--0----|
--0--0--0----0--0--0----0--0--0----0--0--0----|


  PM PM PM   PM PM PM   PM  PM  PM  
-----------------------------------|
-----------------------------------|
-----------------------------------|
-----------------------------------|
--0--0--0----0--0--0----1---1---1--|
--0--0--0----0--0--0----1---1---1--|


  PM PM PM   PM PM PM   PM PM PM   PM PM PM    
----------------------------------------------|
----------------------------------------------|
----------------------------------------------|
----------------------------------------------|
--0--0--0----0--0--0----0--0--0----0--0--0----|
--0--0--0----0--0--0----0--0--0----0--0--0----|


  PM PM PM   PM PM PM   PM PM PM PM PM PM PM PM  
------------------------------------------------|
------------------------------------------------|
------------------------------------------------|
------------------------------------------------|
--0--0--0----0--0--0----1--1--1--1--1--1--1--1--|
--0--0--0----0--0--0----1--1--1--1--1--1--1--1--|


  PM PM PM   PM PM PM   PM PM PM   PM PM PM    
----------------------------------------------|
----------------------------------------------|
----------------------------------------------|
----------------------------------------------|
--0--0--0----0--0--0---0--0--0----0--0--0----|
--0--0--0----0--0--0----0--0--0----0--0--0----|


  PM PM PM   PM PM PM   PM  PM  PM                                                           
-----------------------------------|-------------------|-------------------|
-----------------------------------|-------------------|-------------------|
-----------------------------------|-------------------|-------------------|
-----------------------------------|-------------------|-------------------|
--0--0--0--L-0--0--0----1---1---1--|--0----------------|-------------------|
--0--0--0--L-0--0--0----1---1---1--|--0----------------|-------------------|

                 
-------------------|-------------------|-------------------|-------------------|
-------------------|-------------------|-------------------|-------------------|
-------------------|-------------------|-------------------|-------------------|
-------------------|-------------------|-------------------|-------------------|
--0----------------|-------------------|--0----------------|-------------------|
--0----------------|-------------------|--0----------------|-------------------|




                                         Verse:
                                               PM PM       PM    PM  
-------------------|---------------------|--------------------------|
-------------------|---------------------|--------------------------|
-------------------|---------------------|--------------------------|
-------------------|---------------------|--------------------------|
--0----------------|---------------------|--1--0--0--3--4--0--1--0--|
--0----------------|-----------3b--------|--1--0--0--3--4--0--1--0--|


  PM    PM PM    PM             PM PM       PM    PM  
--------------------------|--------------------------|
--------------------------|--------------------------|
--------------------------|--------------------------|
-----3--------------------|--------------------------|
--0--1--0--0--1--0--3--4--|--1--0--0--3--4--0--1--0--|
--0-----0--0--1--0--3--4--|--1--0--0--3--4--0--1--0--|


  PM    PM PM    PM    PM       PM PM       PM    PM  
--------------------------|--------------------------|
--------------------------|--------------------------|
--------------------------|--------------------------|
-----3--------------------|--------------------------|
--0--1--0--0--1--0--3--0--|--1--0--0--3--4--0--1--0--|
--0-----0--0--1--0--3--0--|--1--0--0--3--4--0--1--0--|


  PM    PM PM    PM             PM PM       PM    PM  
--------------------------|--------------------------|
--------------------------|--------------------------|
--------------------------|--------------------------|
-----3--------------------|--------------------------|
--0--1--0--0--1--0--3--4--|--1--0--0--3--4--0--1--0--|
--0-----0--0--1--0--3--4--|--1--0--0--3--4--0--1--0--|


  PM    PM PM    PM             PM PM       PM    PM  
--------------------------|--------------------------|
--------------------------|--------------------------|
--------------------------|--------------------------|
-----3--------------------|--------------------------|
--0--1--0--0--1--0--3-----|--------------------------|
--0-----0--0--1--0--3-----|--1--0--0--3--4--0--1--0--|


  PM    PM PM    PM             PM PM       PM    PM  
--------------------------|--------------------------|
--------------------------|--------------------------|
--------------------------|--------------------------|
--------------------------|--------------------------|
-----1--------------------|--------------------------|
--0-----0--0--1--0--3--4--|--1--0--0--3--4--0--1--0--|


  PM    PM PM    PM    PM       PM PM       PM    PM     
--------------------------|--------------------------|
--------------------------|--------------------------|
--------------------------|--------------------------|
--------------------------|--------------------------|
-----1--------------------|--------------------------|
--0-----0--0--1--0--3--0--|--1--0--0--3--4--0--1--0--|


  PM    PM PM    PM             PM PM       PM    PM  
--------------------------|--------------------------|
--------------------------|--------------------------|
--------------------------|--------------------------|
--------------------------|--------------------------|
-----1--------------------|--------------------------|
--0-----0--0--1--0--3--4--|--1--0--0--3--4--0--1--0--|




	Verse 2:
  PM    PM PM    PM             PM PM    PM PM    PM  
--------------------------|--------------------------|
--------------------------|--------------------------|
--------------------------|--------------------------|
--------------------------|--------------------3-----|
-----1--------------------|--4--0--0--0--0--0--1--0--|
--0-----0--0--1--0--3-----|--4--0--0--0--0--0-----0--|


  PM    PM PM    PM    PM       PM PM    PM PM    PM  
--------------------------|--------------------------|
--------------------------|--------------------------|
--------------------------|--------------------------|
--------------------------|--------------------3-----|
--0--0--0--0--4--0--1--0--|--4--0--0--0--0--0--1--0--|
--0--0--0--0--4--0--1--0--|--4--0--0--0--0--0-----0--|


  PM    PM PM    PM    PM       PM PM    PM PM    PM  
--------------------------|--------------------------|
--------------------------|--------------------------|
--------------------------|--------------------------|
--------------------------|--------------------3-----|
--0--0--0--0--4--0--1--0--|--4--0--0--0--0--0--1--0--|
--0--0--0--0--4--0--1--0--|--4--0--0--0--0--0-----0--|


  PM    PM PM    PM    PM       PM PM    PM PM    PM  
--------------------------|--------------------------|
--------------------------|--------------------------|
--------------------------|--------------------------|
--------------------------|--------------------3-----|
--0--0--0--0--4--0--1--0--|--4--0--0--0--0--0--1--0--|
--0--0--0--0--4--0--1--0--|--4--0--0--0--0--0-----0--|




	Bridge:
  PM    PM PM    PM    PM                                          
--------------------------|-------------------|-------------------|
--------------------------|-------------------|-------------------|
--------------------------|-------------------|-------------------|
--------------------------|-------------------|-------------------|
--0--1--0--0--4--0--1--0--|--0----------------|-------------------|
--0--1--0--0--4--0--1--0--|--0----------------|-------------------|


-------------------|-------------------|-------------------|-------------------|
-------------------|-------------------|-------------------|-------------------|
-------------------|-------------------|-------------------|-------------------|
-------------------|-------------------|-------------------|-------------------|
--0----------------|-------------------|--0----------------|-------------------|
--0----------------|-------------------|--0----------------|-------------------|




 Breakdown
                                           PM PM PM    PM PM PM     
-------------------|--------------------|--------------------------|
-------------------|--------------------|--------------------------|
-------------------|--------------------|--------------------------|
-------------------|--------------------|--------------------------|
--0----------------|--------------------|--0--0--0-----0--0--0-----|
--0----------------|--------------------|--0--0--0-----0--0--0-----|


     PM PM PM   PM PM PM PM PM PM PM    PM PM PM    PM PM PM     
-------------------------------------|--------------------------|
-------------------------------------|--------------------------|
-------------------------------------|--------------------------|
-------------------------------------|--------------------------|
-----0--0--0----0--0--0--0--0--0--0--|--0--0--0-----0--0--0-----|
-----0--0--0----0--0--0--0--0--0--0--|--0--0--0-----0--0--0-----|


     PM PM PM   PM PM PM PM PM PM PM    PM PM PM    PM PM PM       
-------------------------------------|--------------------------|
-------------------------------------|--------------------------|
-------------------------------------|--------------------------|
-------------------------------------|--------------------------|
-----0--0--0----0--0--0--0--0--0--0--|--0--0--0-----0--0--0-----|
-----0--0--0----0--0--0--0--0--0--0--|--0--0--0-----0--0--0-----|


     PM PM PM   PM PM PM PM PM PM PM    PM PM PM    PM PM PM     
-------------------------------------|--------------------------|
-------------------------------------|--------------------------|
-------------------------------------|--------------------------|
-------------------------------------|--------------------------|
-----0--0--0----0--0--0--0--0--0--0--|--0--0--0-----0--0--0-----|
-----0--0--0----0--0--0--0--0--0--0--|--0--0--0-----0--0--0-----|


     PM PM PM   PM PM PM PM PM PM PM    PM PM PM    PM PM PM     
-------------------------------------|--------------------------|
-------------------------------------|--------------------------|
-------------------------------------|--------------------------|
-------------------------------------|--------------------------|
-----0--0--0----0--0--0--0--0--0--0--|--0--0--0-----0--0--0-----|
-----0--0--0----0--0--0--0--0--0--0--|--0--0--0-----0--0--0-----|


     PM PM PM   PM PM PM PM PM PM PM    PM PM PM    PM PM PM     
-------------------------------------|--------------------------|
-------------------------------------|--------------------------|
-------------------------------------|--------------------------|
-------------------------------------|--------------------------|
-----0--0--0----0--0--0--0--0--0--0--|--0--0--0-----0--0--0-----|
-----0--0--0----0--0--0--0--0--0--0--|--0--0--0-----0--0--0-----|


     PM PM PM   PM PM PM PM PM PM PM    PM PM PM    PM PM PM     
-------------------------------------|--------------------------|
-------------------------------------|--------------------------|
-------------------------------------|--------------------------|
-------------------------------------|--------------------------|
-----0--0--0----0--0--0--0--0--0--0--|--0--0--0-----0--0--0-----|
-----0--0--0----0--0--0--0--0--0--0--|--0--0--0-----0--0--0-----|


     PM PM PM   PM PM PM PM PM PM PM    PM PM PM    PM PM PM     
-------------------------------------|--------------------------|
-------------------------------------|--------------------------|
-------------------------------------|--------------------------|
-------------------------------------|--------------------------|
-----0--0--0----0--0--0--0--0--0--0--|--0--0--0-----0--0--0-----|
-----0--0--0----0--0--0--0--0--0--0--|--0--0--0-----0--0--0-----|


     PM PM PM   PM PM PM PM PM         
-------------------------------|-----||
-------------------------------|-----||
-------------------------------|-----||
-------------------------------|-----||
-----0--0--0----0--0--0--0--0--|-----||
-----0--0--0----0--0--0--0--0--|-----||






Tablature Legend
----------------
L - tied note
PM - Palm Mute
(n) - ghost note
> - accentuded note
NH - natural harmonic
PH - pitch harmonic
h - hammer on
p - pull off
b - bend





Comments


Popular For The Fallen Dreams tabs & chords
Brothers In Arms Tabs
Brothers In Arms 2 Tabs
December Everyday Tabs
Falling Down Intro Tabs
In Sincerity Tabs
New Beginnings Tabs
New Beginnings Intro Tabs
The Big Empty Intro Tabs
The Call Out Perceptions Tabs
This World Around Us Tabs


Song lyrics



↑ Back to top | Tablatures and chords are parodies/interpretations of the original songs. You may use it for private study, scholarship, research or language learning purposes only
© 2014 AZChords.com Contact us | Privacy policy | DMCA | Add/correct tabs | Request tabs | Top 50 tabs