» » »

For The Fallen Dreams, In Sincerity Tabs (ver.1)

Artists:  A B C D E F G H I J K L M N O P Q R S T U V W X Y Z # 

In Sincerity Tabs (ver.1)

For The Fallen Dreams Tabs
 Rating:
4/5 (6 votes)
In Sincerity lessons Tabs too difficult? Try these video lessons and learn fast
1
                Tuning: Drop A#(A# F A# D# G C)

Well this is my first tab. I think its pretty accurate, but if not please let me know. I
tried to show the amount of strums on some of the chords but I think in order to get it
all down right your going to have to practice it. As for the chugging parts, you'll get 
it after a few tries. I just put x's where the chugging is at. I did this all by ear. Enjoy!

-----------------------------------------4-----------------5-5-5------------|
---------------5---------5-5p4-5p4-5p4h5---5p4h5-----------5-5-5------------|
-------6-6-----7-------------------------------------------6-6-6------------|
------------9--7------2---------------------------x--x--x--7-7-7--x--x--x---|
--5-5----------5----2-----------------------------x--x--x--5-5-5--x--x--x---|
--0-0---------------------------------------------x--x--x---------x--x--x---|

--5-5-5------------------------------------------------5-5-5---5-5-5--5-----|
--5-5-5-----9-9-7---9-9-7---9-7----5-5-5--5-5-5--5-5---5-5-5---5-5-5----5---|
--6-6-6-----6-6-6---6-6-6---6-6----2-2-2--2-2-2--2-2---6-6-6---7-7-7------7-|
--7-7-7-----7-7-7---7-7-7---7-7----2-2-2--2-2-2--2-2---7-7-7---7-7-7--------|
--5-5-5----------------------------2-2-2--2-2-2--2-2---5-5-5---5-5-5--------|
----------------------------------------------------------------------------|

--5-5-5--2-2-2--2-2-----5-5-5--5-5-5--5-----------------------------------|
--5-5-5--2-2-2--2-2-----5-5-5--5-5-5----5------5-5-5--5-5-5--5-5----------|
--6-6-6--4-4-4--4-4-----6-6-6--7-7-7------7----2-2-2--2-2-2--2-2----------|
--7-7-7--4-4-4--4-4-----7-7-7--7-7-7-----------2-2-2--2-2-2--2-2----------|
--5-5-5--2-2-2--2-2-----5-5-5--5-5-5-----------2-2-2--2-2-2--2-2----------|
--5-5-5--2-2-2--2-2-------------------------------------------------------|


----------------------------------|
----------------------------------|   <<<(Chugging)
----------------     *important---| Shake head violently while doing this  ;)
----x---x---x---------------------|
----x---x---x---------------------|
----x---x---x---------------------|

--2-2-2-------------------------|
--2-2-2---5-5-5--5-5------------|
--4-4-4---2-2-2--2-2------------|
--4-4-4---2-2-2--2-2------------|   <<< after first chugging part
--2-2-2---2-2-2--2-2------------|
--2-2-2-------------------------|


-----5----5-5---5----5-5--5-----------------|
-----5----5-5---5----5-5----5---------------|   <<< (After second chugging part)
-----6-h--7-7---6-h--7-7------7-------------|       x2 (if you want to play lead…)
-----7----7-7---7----7-7--------------------|
-----5----5-5---5----5-5--------------------|
--------------------------------------------|


Solo:

---17~-16---------19h21p19--16-17-16---------------------------17~~--16--------|
------------15/17~--------------------17--15-14-15--19-17--14/15---------------|
-------------------------------------------------------------------------------|
-------------------------------------------------------------------------------|
-------------------------------------------------------------------------------|
-------------------------------------------------------------------------------|

----------------17~-16---------19h21p19--16-17-16---------------------------|
15/17------------------15/17~--------------------17--15-14-15--19-17--14/15-|
-------14-16-13~------------------------------------------------------------|
----------------------------------------------------------------------------|
----------------------------------------------------------------------------|
----------------------------------------------------------------------------|


--17~~----16-14-16-14-13-14---16h17---21\-----|
----------------------------------------------|
----------------------------------------------|
----------------------------------------------|  <<< x2
----------------------------------------------|
----------------------------------------------|

I know I've got to,
Once more I watch you,
Spinning around falling down,
There's nothing left of you.


Outro:

------------------------|
------------------------|
------------------------|
----x---x---x-----------|
----x---x---x-----------|
----x---x---x-----------|

--------------------------------------------------|
----------------14~-----17~-----------------------|
--------11~------------------14---16-----13-------|   <<<  x4.5  (fading out)
--------------------------------------------------|
--------------------------------------------------|
--------------------------------------------------|

| /   slide up
| \   slide down           x
| h   hammer-on            x   Chugging (Deaden Strings)
| p   pull-off             x
| ~   vibrato
            
Submit corrections

comments powered by Disqus
↑ Back to top | For The Fallen Dreams Tabs for In Sincerity. Lyrics for acoustic guitar and electric guitar. 1 Tablatures and chords are parodies/interpretations of the original songs. You may use it for private study, scholarship, research or language learning purposes only