» » »

For The Fallen Dreams, Brother In Arms Tabs (ver.4)

Artists:  A B C D E F G H I J K L M N O P Q R S T U V W X Y Z # 

Brother In Arms Tabs (ver.4)

For The Fallen Dreams Tabs
Rating:
0/5 (0 votes)
Brother In Arms lessons Tabs too difficult? Try these video lessons and learn fast
                i saw the other tab after i figured out the song myself and didnt think the other was 
right. here is my version. your going to have to figure out the timing to pretty much 
its not that hard


~ - hold out note
/ - slide up
\ - slide down
. - palm mute
h - hammer on
p - pull off

tuning is A# or B (same thing)

intro
6~--6~-----6~----|
10~--10~-10~-10~-|
10~----10~-------|  2x but remember the 9 palm mutes on the low b string the second time
0~---------------|
0~---------------|
0~---------------|


verse 1     figure out rhythm
6------8~---6~---6~---|
10------10~--10~--10~-|
10--------10~--10~----|
0---------------------|
0---0-----------------|
0---0-----------------|
    .

fade out using same chord as intro

verse 2
6-------6--6--I-6~---6~-----I-5h8p5-----|
10------10-10-I--10~--10~---I------6-6--|
10------10-10-I----10~--10~-I-------9-5-|
0-------0--0--I-------------I-----------|
0--0000-0--0--I-------------I-----------|
0--0000-0--0--I-------------I-----------|
   ....


verse 3
-----------------------|
-----------------------|
-----------------------|
0----------------------|
0----3/5-5/7/8\7--3----|
0-0-----0--------------|
   .    .

 again, figure out rhythm for both parts of breakdown

breakdown part 1
-----
-----
-----
---1-
0--0-
0--1-
.  .


breakdown part 2
-----------------------|
-----------------------|
-----------------------|
0---1------------------|
0-0-0-0----------------|
0-0-1-1--4-1-0-1-4-0-1-|
  .   .


post breakdown
8~---6~---6~---|
-10~--10~--10~-|
---10~--10~----|
---------------|
---------------|


verse 1
            

comments powered by Disqus
↑ Back to top | For The Fallen Dreams Tabs for Brother In Arms. Lyrics for acoustic guitar and electric guitar. Tablatures and chords are parodies/interpretations of the original songs. You may use it for private study, scholarship, research or language learning purposes only