» » »

Format, Tune Out Tabs (ver.2)

Artists:  A B C D E F G H I J K L M N O P Q R S T U V W X Y Z # 

Tune Out Tabs (ver.2)

Format Tabs
 Rating:
4/5 (4 votes)
Tune Out lessons Tabs too difficult? Try these video lessons and learn fast
1
                -------------------------------------------------------------------------------
1. 			     TUNE OUT - The Format
-------------------------------------------------------------------------------

Tuning: ½ step down to eb Bb Gb Db Ab Eb

x = MUTE NOTE

Intro: Repeat 3X   If you notice, the top two strings stay the same and the high e is what changes

e|—---3-3-3-3-------1-1-1-1------------------x-x-x-x---------------------------|
B|-------------------------------------------3-3-3-3---------------------------|
G|-----------------------------------------------------------------------------|
D|-----------------------------------------------------------------------------|
A|----2-2-2-2-------2-2-2-2------2-2-2-2-----2-2-2-2---------------------------|
E|----3—3-3-3-------3-3-3-3------3-3-3-3-----3-3-3-3---------------------------|

Verses: Repeat 3X Per Verse

          It's your bed..................please choose a ...........side
         I'll take the one..............closest to the ...............door
         And you start....................................................to speak
e|-------------------------------------------1-1-1-1------------------------|
B|----1-1-1-1--------1-1-1-1------1-1-1-1----1-1-1-1------------------------|
G|--------------------------------2-2-2-2----2-2-2-2------------------------|
D|----2-2-2-2---------------------2-2-2-2----3-3-3-3------------------------|
A|----3-3-3-3--------2-2-2-2-----------------3-3-3-3------------------------|
E|----3-3-3-3--------3-3-3-3------------------------------------------------|


THEN!!!!
  Words they.. try.....justify.......do far more wrong.....
e|-----------------------------3-3-----1-1-1-1-1-1-1-1-1-1-1-1--------------|
B|----1-1------1-1-----1-1—----3-3-----1-1-1-1-1-1-1-1-1-1-1-1--------------|
G|---------------------2-2-------------2-2-2-2-2-2-2-2-2-2-2-2--------------|
D|----2-2--------------2-2-------------3-3-3-3-3-3-3-3-3-3-3-3--------------|
A|----3-3------2-2-------------2-3-----3-3-3-3-3-3-3-3-3-3-3-3--------------|
E|----3-3------3-3-------------3-3------------------------------------------|


THEN FOR   ......so grab the coat the keys, the tension speaks, were singin 
PLAY THE INTRO 2X


Then the chords for the CHORUS:

          C		                         F	 C			F		 C
I'll tap the break       while you crack the window    the smell of smoke    Is makin my 
  explode the 51 is
	   F   		                PLAY INTRO
Backed up and two slow       Lets tune out by turnin on the radio

Bridge:

        Am                     F		G	    C	G	         Am        F
Haven't you        Heard this   song about a    thousand   times be-     for oh   well
			PLAY INTRO
After a while it all sounds the same I guess it's better than silence and better than shame.

YOU SHOULD BE ABLE TO FIGURE OUT THE ENDING, IT USES ALL THE SAME CHORDS.

Enjoy
            
Submit corrections

comments powered by Disqus
↑ Back to top | Format Tabs for Tune Out. Lyrics for acoustic guitar and electric guitar. 1 Tablatures and chords are parodies/interpretations of the original songs. You may use it for private study, scholarship, research or language learning purposes only