» » »

Format, Time Bomb Tabs (ver.1)

Artists:  A B C D E F G H I J K L M N O P Q R S T U V W X Y Z # 

Time Bomb Tabs (ver.1)

Format Tabs
Rating:
0/5 (0 votes)
Time Bomb lessons Tabs too difficult? Try these video lessons and learn fast
                "OHH OH NO Was it worth it"
----3-----1---------------------------|
--1-3--1--1---------------------------|
--0-0--0--2---------------------------|
--2-0--2--3---------------------------|
--3-2--3------------------------------|
----3---------------------------------|

NOw the actual piano riff is this
---------------------------------------------------|
---------------------------------------------------|
---------------------------------------------------|
---------------------------------------------------|
-----0-0-2-2-320-repeat---------0-0-20--repeat-----|
--3-3-----------3--------1-1-3-3------31-----------|

Now you can do that on the guitar But I play it this way
Just the Chords. I enjoy it like that
--3-3-3---1-1-1------------------------------------------|
--3-3-3---1-1-1------------------------------------------|
--0-0-0---2-2-2---Repeat---------------------------------|
--0-0-0---3-3-3------------------------------------------|
--2-2-2---3-3-3------------------------------------------|
--3-3-3---1-1-1------------------------------------------|

Chorus
-------1------------------------------------------|
--1----1-1----------------------------------------|
--2----2-0----------------------------------------|
--2----3-2----------------------------------------|
---------3----------------------------------------|
--------------------------------------------------|
On the F is "Time" and the C is "Bomb"


I dont know the bridge. If someone wants to help me with that
            

comments powered by Disqus
↑ Back to top | Format Tabs for Time Bomb. Lyrics for acoustic guitar and electric guitar. Tablatures and chords are parodies/interpretations of the original songs. You may use it for private study, scholarship, research or language learning purposes only