» » »

Format, The Compromise Bass tabs (ver.1)

Artists:  A B C D E F G H I J K L M N O P Q R S T U V W X Y Z # 

The Compromise Bass tabs (ver.1)

Format Tabs
 Rating:
4/5 (4 votes)
The Compromise lessons Tabs too difficult? Try these video lessons and learn fast
1
                Tuning: normal (EADG)

Intro:

G|-------------------------------------------------------|
D|-------------------------------------------------------|
A|--4--4--0--0----------------4--4--0--0-----------------|
E|---------------0--0--0--0----------------0--0--0--0----|

G|-------------------------------------------------------|
D|--------------------------------------2----------------|
A|--4--4--0--0--------0--0--------0--2-----4--2----------|
E|--------------0--0--------0--0-----------------4-------|

Verse 1 (after resting eight measures)

G|--------------------------------------------------------------|
D|--------------------------------------------------------------|
A|--------------------------------------------------------------|
E|--0--0--0--0--0--0--0--0--2--2--2--2--2--2--2--2--------------|

G|---------------------------------------------------------------|
D|---------------------------------------------------------------|
A|--0--0--0--0--0--0--0--0---------------------------------------|
E|--------------------------0--0--0--0--0--0--0--0---------------|


G|------------------------|--------------------------------------|
D|------------------------|--------------------------------------|
A|------------------------|--------------------------------------|
E|--2--2--2-----2--2--22--|--2--2--2-----2--2--22----------------|

G|------------------------|--------------------------------------|
D|------------------------|--------------------------------------|
A|--0--0--0-----0--0--00--|--0--0--0-----0--0--00----------------|
E|------------------------|--------------------------------------|


Chorus:


G|-------------------------------------------------------|
D|-------------------------------------------------------|
A|--4--4--0--0----------------4--4--0--0-----------------|
E|---------------0--0--0--0----------------0--0--0--0----|

G|-------------------------------------------------------|
D|--------------------------------------2----------------|
A|--4--4--0--0--------0--0--------0--2-----4--2----------|
E|--------------0--0--------0--0-----------------4-------|

Verse 2:

G|--------------------------------------------------------------|
D|--------------------------------------------------------------|
A|--------------------------------------------------------------|
E|--0--0--0--0--0--0--0--0--2--2--2--2--2--2--2--2--------------|

G----------------------------------------------------------------|
D--------------------------------------------------2-------------|
A--0--0--0--0--0--0--0--0-----------------------------4--2-------|
E--------------------------0--0--0--0--0--0--0--0-----------4----|

G|--------------------------------------------------------------|
D|--------------------------------------------------------------|
A|--------------------------------------------------------------|
E|--0--0--0--0--0--0--0--0--2--2--2--2--2--2--2--2--------------|

G----------------------------------------------------------------|
D--------------------------------------------------2-------------|
A--0--0--0--0--0--0--0--0-----------------------------4--2-------|
E--------------------------0--0--0--0--0--0--0--0-----------4----|

G|------------------------|--------------------------------------|
D|------------------------|--------------------------------------|
A|------------------------|--------------------------------------|
E|--2--2--2-----2--2--22--|--2--2--2-----2--2--22----------------|

G|------------------------|--------------------------------------|
D|------------------------|--------------------------------------|
A|--0--0--0-----0--0--00--|--0--0--0/12--12--12--12--------------|
E|------------------------|--------------------------------------|

Chorus:


G|-------------------------------------------------------|
D|-------------------------------------------------------|
A|--4--4--0--0----------------4--4--0--0-----------------|
E|---------------0--0--0--0----------------0--0--0--0----|

G|-------------------------------------------------------|
D|--------------------------------------2----------------|
A|--4--4--0--0--------0--0--------0--2-----4--2----------|
E|--------------0--0--------0--0-----------------4-------|

Bridge:


G|------------------------------------------------------|
D|--------------------------------------2---------------|
A|--2--2--2--2--0--0--0--0-----------------4--2---------|
E|--------------------------0--0--0--0-----------4------|

G|------------------------------------------------------|
D|--------------------------------------2---------------|
A|--2--2--2--2--0--0--0--0-----------------4--2---------|
E|--------------------------0--0--0--0-----------4------|

Guitar solo:



G|-------------------------------------------------------|
D|-------------------------------------------------------|
A|--4--4--0--0----------------4--4--0--0-----------------|
E|---------------0--0--0--0----------------0--0--0--0----|

G|-------------------------------------------------------|
D|--------------------------------------2----------------|
A|--4--4--0--0--------0--0--------0--2-----4--2----------|
E|--------------0--0--------0--0-----------------4-------|

G|-------------------------------------------------------|
D|-------------------------------------------------------|
A|--4--4--0--0----------------4--4--0--0-----------------|
E|---------------0--0--0--0----------------0--0--0--0----|

G|-------------------------------------------------------|
D|--------------------------------------2----------------|
A|--4--4--0--0--------0--0--------0--2-----4--2----------|
E|--------------0--0--------0--0-----------------4-------|

Bridge 2:

G|------------------------------------------------------|
D|--------------------------------------2---------------|
A|--2--2--2--2--0--0--0--0-----------------4--2---------|
E|--------------------------0--0--0--0-----------4------|

G|------------------------------------------------------|
D|--------------------------------------2---------------|
A|--2--2--2--2--0--0--0--0-----------------4--2---------|
E|--------------------------0--0--0--0-----------4------|

Chorus/Outro:


G|-------------------------------------------------------|
D|-------------------------------------------------------|
A|--4--4--0--0----------------4--4--0--0-----------------|
E|---------------0--0--0--0----------------0--0--0--0----|

G|-------------------------------------------------------|
D|--------------------------------------2----------------|
A|--4--4--0--0--------0--0--------0--2-----4--2-----2----|
E|--------------0--0--------0--0-----------------4-------|

G|-------------------------------------------------------|
D|-------------------------------------------------------|
A|--4--4--0--0----------------4--4--0--0-----------------|
E|---------------0--0--0--0----------------0--0--0--0----|

G|-------------------------------------------------------|
D|--------------------------------------2----------------|
A|--4--4--0--0--------0--0--------0--2-----4--2-----2----|
E|--------------0--0--------0--0-----------------4-------|

G|----------------------------|
D|----------------------------|
A|--2--2-----2----------------|
E|--------4-----0~~~~~~~~~~~~~|
            
Submit corrections

comments powered by Disqus
↑ Back to top | Format Bass for The Compromise. Lyrics for acoustic guitar and electric guitar. 1 Tablatures and chords are parodies/interpretations of the original songs. You may use it for private study, scholarship, research or language learning purposes only