» » »

Forever The Sickest Kids, Tough Love Tabs (ver.1)

Artists:  A B C D E F G H I J K L M N O P Q R S T U V W X Y Z # 

Tough Love Tabs (ver.1)

Forever The Sickest Kids Tabs
 Rating:
4.2/5 (5 votes)
Tough Love lessons Tabs too difficult? Try these video lessons and learn fast
1
                


Intro/Outro (lead):

E|--------------------------|
B|-1-3----------------------|
G|----3--------7-8-7---7----|
D|-----3-7-8-10----10-8--7-8|
A|----------8-----------8---|
D|--------------------------|

Just try to listen to the song to get the timing :D

Intro/Outro (rhythm):

E|-------------|
B|-------------|
G|-------------| (2x)
D|-1------7-8--|
A|-1-(2x)-7-8--|
D|-1------7-8--|

Verse (lead):

either non-existent or i just don't know XD

Verse (rhythm):

E|-------------------|
B|-------------------|
G|-------------------| (2x) then
D|-1-----x-7-x-8-x-x-|             D|-8------0-|
A|-1-(2x)x-7-x-8-x-x-|             A|-8-(4x)-0-|
D|-1-----x-7-x-8-x-x-|             D|-8------0-|

Pre-Chorus (rhythm):

E|--------------------|--------------|
B|--------------------|--------------|
G|---------------3----|--------------|
D|-1-0-3-----1-0-3----|--1---/5--\3--|
A|-1-0-3-OR--1-0-1----|--1---/5--\3--|
D|-1-0-3-----1-0------|--1---/5--\3--|

Just listen to the song to know how many times you have to strum the non-zeroes.. 
those zeroes are there just to make better chord switches

Chorus (rhythm):

E|-----------------|
B|-----------------|
G|-----------------| 
D|-8---3---1/5\3---| (2x) 
A|-8---3---1/5\3---|
D|-8---3---1/5\3---|

Again, just listen to the song so you know how many times should you strum :D



Bridge (lead):

i don't know it yet XD

Bridge (rhythm):

E|----------------|
B|----------------|
G|--------8--10---| (2x)
D|-3--5---8--10---|
A|-3--5---6--8----|
D|-3--5-----------|

Yet again, just listen to the song for timing :D

Progression

Intro
Verse
Pre-Chorus
Chorus
Intro (not sure if it has lead or not)
Verse 
Chorus
Bridge
Chorus (2x)
Outro

i hope you guys like it :D
oh, and please rate :)))))))))
            
Submit corrections

comments powered by Disqus
↑ Back to top | Forever The Sickest Kids Tabs for Tough Love. Lyrics for acoustic guitar and electric guitar. 1 Tablatures and chords are parodies/interpretations of the original songs. You may use it for private study, scholarship, research or language learning purposes only