» » »

Forever The Sickest Kids, Crossroads I Guess You Can Say Things Are Getting Pretty Serious Tabs (ver.1)

Artists:  A B C D E F G H I J K L M N O P Q R S T U V W X Y Z # 

Crossroads I Guess You Can Say Things Are Getting Pretty Serious Tabs (ver.1)

Forever The Sickest Kids Tabs
 Rating:
4.4/5 (7 votes)
Crossroads I Guess You Can Say Things Are Getting Pretty Serious lessons Tabs too difficult? Try these video lessons and learn fast
1
                Hey guys! So this is the first tab I put up here, and I figure it'll be easier for my
Anyway, I realized there were no tabs for this amazing song, so I put this one together 
for you guys. Hopefully you'll enjoy it!

Tuning: Drop D

Intro:
|-----------------------------|
|-----------------------------|
|-----------------7-7/9-------|
|-0-0-2-0-2/5-5-5-7-7/9-7-7-7-|
|-0-0-2-0-2/5-5-5-5-5/7-7-7-7-|
|-0-0-2-0-2/5-5-5-------7-7-7-|

Now that's the main intro i'll be referring to in this tab, but in the legit intro after
you play that one time, the second time you'll be replacing some of the power chords
with octaves like this.

Intro (2nd time):
|------------------------------|
|-------------------8/10-------|
|-----------------7-x/x--------|
|-0-0-2-0-2/5-5-5-7-5/7--7-7-7-|
|-0-0-2-0-2/5-5-5-5------7-7-7-|
|-0-0-2-0-2/5-5-5--------7-7-7-|

Verse:
"You and me against the wall..."
|-----------------------------------------------|
|-----------------------------------------------|
|-7-7-7-7--7-7-7-7------------------------------|
|-7-7-7-7--7-7-7-7---12-12-0-0-0-0--0-0-0-0-----|
|-5-5-5-5--5-5-5-5---12-12-0-0-0-0--0-0-0-0-----|
|--------------------12-12-0-0-0-0--0-0-0-0-----|

(I obviously couldn't write out the rhythm of the verse, so there are the chords for you
to figure it out.)

Pre-chorus:
"I get your point, we're better friends than lovers..."
|----------------------------------------------|
|----------------------------------------------|
|----------------------------------------------|
|-9-9-9-9-9-5-5-5-5-5-0-0-0-0-0-0-0------------|
|-9-9-9-9-9-5-5-5-5-5-0-0-0-0-0-0-0------------|
|-9-9-9-9-9-5-5-5-5-5-0-0-0-0-0-0-0------------|

Chorus:
"You got in my heart, you got in my head..."
|-------------------------------------------------|
|-------------------------------------------------|
|-------------------------------------------------|
|-9-9-9-9-9-5-5-5-5-5-0-0-0-0-0-7-7-7-7-7---------|
|-9-9-9-9-9-5-5-5-5-5-0-0-0-0-0-7-7-7-7-7---------|
|-9-9-9-9-9-5-5-5-5-5-0-0-0-0-0-7-7-7-7-7---------|

The first time you end the chorus, you'll be ending on the a chord (chorus ending 1),
and then you'll be using chorus ending 2 twice (look at the order at the end to understand
how it all goes together.

Chorus ending 1:
|-----|
|-----|
|-----|
|-7---|
|-7---|
|-7---|

Chorus ending 2:
|-----------------------------|
|-----------------------------|
|-----------------------------|
|-7-9-7-5-7-5-0---------------|
|-7-9-7-5-7-5-0---------------|
|-7-9-7-5-7-5-0---------------|

Bridge:
|-------------------------------------------|
|-------------------------------------------|
|-------------------------------------------|
|-000-0-0-999-9-9-777-7-7-000-0-0-----------|
|-000-0-0-999-9-9-777-7-7-000-0-0-----------|
|-000-0-0-999-9-9-777-7-7-000-0-0-----------|

(Figure that rhythm out too.)

Solo:
|-15--15-------------------------------------------|
|-17b-17br---------15------15----------------------|
|---------16~-14h16---14h16-----14--14--14---------|
|-----------------------------16--16--16--16-12~---|
|--------------------------------------------------|
|--------------------------------------------------|

(I'm not positive if the solo is 100% correct, but it's pretty close and you can just
mess around with those notes. Be unique!)

I don't know the acoustic breakdown lol, so if you want you can just play the pre-chorus
chords over it.

Ending solo:
|----17-15-14----17-----------|
|-------------------17~-------|
|-\14---------\14-------------|
|-----------------------------|
|-----------------------------|
|-----------------------------|


Now here's the order of the song!

Intro x1
Intro (2nd time) x1
Verse x2
Pre-chorus x2
Chorus x2
Chorus ending 1 x1
Verse x2
Pre-chorus x2
Chorus x2
Chorus ending 2 x1
Bridge x1 (or 2 if you're just playing rhythm)
Solo x1
Chorus x2
Intro x2
Chorus x2
Ending solo x2

To see my cover of this so it can help you understand better, go here:
            
Submit corrections

comments powered by Disqus
↑ Back to top | Forever The Sickest Kids Tabs for Crossroads I Guess You Can Say Things Are Getting Pretty Serious. Lyrics for acoustic guitar and electric guitar. 1 Tablatures and chords are parodies/interpretations of the original songs. You may use it for private study, scholarship, research or language learning purposes only