>
 >
Crossroads I Guess You Can Say Things Are Getting Pretty Serious

Crossroads I Guess You Can Say Things Are Getting Pretty Serious Bass Tabs

Forever The Sickest Kids - Crossroads I Guess You Can Say Things Are Getting Pretty Serious chords, tabs, tablatures, lyrics

Guitar lessons | Add/correct | Request | Top 50 tabs Artists:  A B C D E F G H I J K L M N O P Q R S T U V W X Y Z 0-9

Crossroads I Guess You Can Say Things Are Getting Pretty Serious Bass Tabs – Forever The Sickest Kids

CD, Sheet music, Poster

Do you like Crossroads I Guess You Can Say Things Are Getting Pretty Serious? Share with your friends now
Bass TabsTabs
=======================================================================

                 Crossroads - Forever the Sickest Kids

=======================================================================



Tuning: Drop D

Intro
=====
  +   +   +   +    +   +   +   +    +   +   +   +    +   +   +   +
G|----------------|----------------|----------------|----------------|
D|----------------|-----2------02--|----------------|-----2----------|
A|----------------|5--55--0-00---0-|----------------|5--55--0-00-/\--|
D|0-0-2025-55-5555|---------------0|0-0-2025-55-5555|----------------|

Verse
=====
  +   +   +   +    +   +   +   +    +   +   +   +    +   +   +   +
G|----------------|----------------|----------------|----------------|
D|----------------|----------------|----------------|----------------|
A|----------------|----------------|----------------|----------------|
D|555-------------|555----------5-4|000----0--0-----|000----0--0-----|

  +   +   +   +    +   +   +   +    +   +   +   +    +   +   +   +
G|----------------|----------------|----------------|----------------|
D|----------------|----------------|----------------|----------------|
A|----------------|----------------|----------------|----------------|
D|555-------------|555----------5-4|000----0--0-----|000-----*0000---|

Chorus
======
  +   +   +   +    +   +   +   +    +   +   +   +    +   +   +   +
G|----------------|----------------|----------------|----------------|
D|----------------|----------------|----------------|----------------|
A|2222222---------|---------------2|2222222---------|---------------2|
D|-------555555555|000000000000025-|-------555555555|000000000000025-|

  +   +   +   +    +   +   +   +    +   +   +   +    +   +   +   +
G|----------------|----------------|----------------|----------------|
D|----------------|----------------|----------------|----------------|
A|2-2-2-2---------|--------0-0-0-0-|2222222---------|--------0-------|
D|--------5-5-5-5-|0-0-0-0---------|-------555555555|00000000--------|

Verse
=====
  +   +   +   +    +   +   +   +    +   +   +   +    +   +   +   +
G|----------------|----------------|----------------|----------------|
D|----------------|----------------|----------------|----------------|
A|----------------|----------------|----------------|----------------|
D|555-------------|555---------^12-|000----0--0-----|000----0--0-----|

  +   +   +   +    +   +   +   +    +   +   +   +    +   +   +   +
G|----------------|----------------|----------------|----------------|
D|----------------|----------------|----------------|----------------|
A|----------------|----------------|----------------|----------------|
D|555-------------|555----------5-4|000----0--0-----|000----5*^12^12-|

Chorus
======
  +   +   +   +    +   +   +   +    +   +   +   +    +   +   +   +
G|----------------|----------------|----------------|----------------|
D|----------------|----------------|----------------|----------------|
A|2222222---------|----------------|2222222---------|-------000000000|
D|-------555555555|0000000000000000|-------555555555|0000000---------|

  +   +   +   +    +   +   +   +    +   +   +   +    +   +   +   +
G|----------------|----------------|----------------|----------------|
D|----------------|----------------|----------------|----------------|
A|2-2-2-2---------|--------0-0-0-0-|2222222---------|--------*020----|
D|--------5-5-5-5-|0-0-0-0---------|-------555555555|00000000----*575|

Bridge
======
  +   &   +   &    +   &   +   &    +   &   +   &    +   &   +   &
G|----------------|----------------|----------------|----------------|
D|----------------|----------------|----------------|----------------|
A|----------------|----------------|----------------|----------------|
D|----------------|----------------|----------------|----------------|

  +   &   +   &    +   &   +   &    +   &   +   &    +   &   +   &
G|----------------|----------------|----------------|----------------|
D|----------------|----------------|----------------|----------------|
A|--------------2-|--2-2---22222---|----------------|----------------|
D|00000---0-0-0---|----------------|55555---5-5-5-0-|--0-0---00000000|

  +   &   +   &    +   &   +   &    +   &   +   &    +   &   +   &
G|----------------|----------------|----------------|----------------|
D|----------------|----------------|----------------|----------------|
A|--------------2-|--2-2---22222---|----------------|----------------|
D|00000---0-0-0---|----------------|55555---5-5-5-0-|--0-0---00000000|

Chorus
======
  +   +   +   +    +   +   +   +    +   +   +   +    +   +   +   +
G|----------------|----------------|----------------|----------------|
D|----------------|----------------|----------------|-----2----------|
A|----------------|----------------|----------------|5--55--0-00-----|
D|----------------|----------------|----------------|----------------|

  +   +   +   +    +   +   +   +    +   +   +   +    +   +   +   +
G|----------------|----------------|----------------|----------------|
D|----------------|----------------|----------------|----------------|
A|2222222---------|--------00000000|2222222---------|----------------|
D|-------555555555|00000000--------|-------555555555|00000000000024/\|

  +   +   +   +    +   +   +   +    +   +   +   +    +   +   +   +
G|----------------|----------------|----------------|----------------|
D|----------------|-----2------02--|----------------|-----222--------|
A|----------------|5--55--0-00---0-|----------------|55555---00000000|
D|0-0-2025-55-5555|---------------0|0000202555555555|----------------|

  +   +   +   +    +   +   +   +    +   +   +   +    +   +   +   +
G|----------------|----------------|----------------|----------------|
D|----------------|----------------|----------------|----------------|
A|2222222---------|-------000000000|2222222---------|----------------|
D|-------555555555|0000000---------|-------555555555|00000000*020*245|

Outro
=====
  +   +   +   +    +   +   +   +    +   +   +   +    +   +   +   +
G|----------------|----------------|----------------|----------------|-
D|----------------|-----2------02--|----------------|-----2----------|-
A|----------------|5--55--0-00---0-|----------------|5--55---0-------|-
D|0-0-2025-55-5555|---------------0|0-0-2025-55-5555|----------------|0

/ - Slide up
\ - Slide down
* - Triplets
^ - 10 or greater (triplet repetitions not shown)





Comments


Popular Forever The Sickest Kids tabs & chords
Coffee Break Chords
Keeps On Bringing Me Down Chords
The Party Song Chords
Bundled Up Tabs
Do Or Die Tabs
Hey Brittany 1 Tabs
Hey Brittany 2 Tabs
Whoa Oh 1 Tabs
Hip Hop Chick Ukulele
The Party Song 2 Ukulele


Song lyrics



↑ Back to top | Tablatures and chords are parodies/interpretations of the original songs. You may use it for private study, scholarship, research or language learning purposes only
© 2014 AZChords.com Contact us | Privacy policy | DMCA | Add/correct tabs | Request tabs | Top 50 tabs