» » »

Forever The Sickest Kids, Believe Me I'm Lying Bass tabs (ver.1)

Artists:  A B C D E F G H I J K L M N O P Q R S T U V W X Y Z # 

Believe Me I'm Lying Bass tabs (ver.1)

Forever The Sickest Kids Tabs
 Rating:
4/5 (4 votes)
Believe Me I'm Lying lessons Tabs too difficult? Try these video lessons and learn fast
1
                drop d tuning
DADG
Believe me Im lying By FTSK

Figure out The Rythym ITs Easy :D

begginning no bass

End of verse:

G|---------------------|
D|---------------------|
A|---------------------|
D|-1-1-1-1--1-1-1-1--3-|

CHORUS:

G|--------------------------------------------------------------------|
D|--------------------------------------------------------------------|
A|--------------------------------------------------------------------|
D|-6-6-6-6-6--10-10-10--10-10-10--8-8-8-8-8--13-13-13-13--12-12-12-12-|

G|-------------------------------------------------------|
D|-------------------------------------------8-8-8-8-8-8-|
A|-------------------------------------------------------|
D|-6-6-6-6-6--10-10-10--10-10-10--8-8-8-8-8--------------|

G|--------------------------------------------------------------------------|
D|----------------------------------------------------------8-8-8-8-8-8-8-8-|
A|--------------------------------------------------------------------------|
D|-6-6-6-6-6-6-6-6-10-10-10-10-10-10-10-10-8-8-8-8-8-8-8-8------------------|

G|--------------------------------------------------------------------|
D|-------------------------------------------8-8-8--8-8-8-------------|
A|--------------------------------------------------------------------|
D|-6-6-6-6-6--10-10-10--10-10-10--8-8-8-8-8---------------------------|

DOO DOO PART:

G|-----------------------------------------------------|
D|-----------------------------------------------------|
A|-----------------------------------------------------|x2
D|6-6--6-6-6--6/1-1--1-1-1--1-3-3--3-3-3--3-3-3--3-3-3-|

Soft Verse:

G|-----------8h10-10-8----------10-8-|
D|-----------------------------------|
A|----6--6h8---------------6h8-------|
D|-6--------------------6------------|

verse/bulidup
G|-----------------------------------------------------|
D|-----------------------------------------------------|
A|-----------------------------------------------------|
D|-6-6-6-6-6-6-6-6-6-6-6-6-6-6-6-6--1-1--1-1--3-3--3-3-|

G|-----------------------------------------------------|
D|-----------------------------------------------------|
A|-----------------------------------------------------|
D|-6-6-6-6-6-6-6-6-6-6-6-6-6-6-6-6--1-1--1-1--3--------|

G|--------------------|
D|--------------------|
A|--------------------|x2
D|-6------1------3----|

CHORUS:

G|--------------------------------------------------------------------|
D|--------------------------------------------------------------------|
A|--------------------------------------------------------------------|
D|-6-6-6-6-6--10-10-10--10-10-10--8-8-8-8-8--13-13-13-13--12-12-12-12-|

G|-------------------------------------------------------|
D|-------------------------------------------8-8-8-8-8-8-|
A|-------------------------------------------------------|
D|-6-6-6-6-6--10-10-10--10-10-10--8-8-8-8-8--------------|

G|--------------------------------------------------------------------------|
D|----------------------------------------------------------8-8-8-8-8-8-8-8-|
A|--------------------------------------------------------------------------|
D|-6-6-6-6-6-6-6-6-10-10-10-10-10-10-10-10-8-8-8-8-8-8-8-8------------------|

G|--------------------------------------------------------------------|
D|-------------------------------------------8-8-8--8-8-8-------------|
A|--------------------------------------------------------------------|
D|-6-6-6-6-6--10-10-10--10-10-10--8-8-8-8-8---------------------------|

NO BASS Til End of DOO DOO PART 2:(play with guitar)

G|-------------------|
D|-------------------|
A|-------------------|
D|-6-6--1-1--3-3-----|

Guitar/Keyboard Solo:

G|---------------------------------------------------------------------|
D|---------------------------------------------------------------------|
A|---------------------------------------------------------------------|x2
D|-6-6-6-6-6-6-6-6-6-6-6-6-6-6-6-6-8-8-8-8-8-8-8-8-10-10-10-10-5-5-5-5-|

BASS SOLO THING!:

G|---------------------------------|
D|--------17-19--17-19--17--13--15-|
A|-17-19---------------------------|
D|---------------------------------|

Last Chorus:

G|-------------------------------------------------------|
D|-------------------------------------------8-8-8-8-8-8-|
A|-------------------------------------------------------|x2
D|-6-6-6-6-6--10-10-10--10-10-10--8-8-8-8-8--------------|

G|--------------------------------------------------------------------------|
D|----------------------------------------------------------8-8-8-8-8-8-8-8-|
A|--------------------------------------------------------------------------|
D|-6-6-6-6-6-6-6-6-10-10-10-10-10-10-10-10-8-8-8-8-8-8-8-8------------------|

G|--------------------------------------------------------------------|
D|-------------------------------------------8-8-8--8-8-8-------------|
A|--------------------------------------------------------------------|
D|-6-6-6-6-6--10-10-10--10-10-10--8-8-8-8-8---------------------------|
            
Submit corrections

comments powered by Disqus
↑ Back to top | Forever The Sickest Kids Bass for Believe Me I'm Lying. Lyrics for acoustic guitar and electric guitar. 1 Tablatures and chords are parodies/interpretations of the original songs. You may use it for private study, scholarship, research or language learning purposes only