» » »

Foreign Objects, Unsuccessful Journey Through The Astroid Belt Tabs (ver.1)

Artists:  A B C D E F G H I J K L M N O P Q R S T U V W X Y Z # 

Unsuccessful Journey Through The Astroid Belt Tabs (ver.1)

Foreign Objects Tabs
 Rating:
4/5 (4 votes)
Unsuccessful Journey Through The Astroid Belt lessons Tabs too difficult? Try these video lessons and learn fast
                Tuning: Standard


This is a neater version of the same tab I had
done before...

KEY:

/ slide up
\ slide down
h hammer on
p pull off

Fade in Intro/Riff1 0:00 - 0:43
-|----------------------------------------------------------------------------|
-|----------------------------------------------------------------------------|
-|---6-7----6-7----6-7-4-5-6----6-7---6-7-9--6-7-9----------------------------|
-|-4------3------4------------4-----6-----------------------------------------|
-|----------------------------------------------------------------------------|
-|----------------------------------------------------------------------------|


Riff2 0:44 - 1:28
-|----------------------------------------------------------------------------|
-|----------------------------------------------------------------------------|
-|----------------------------------------------------------------------------|
-|--7--------7----5-------4---5--------5---4---2---0--------------------------|
-|----------------------------------------------------------------------------|
-|----5-3-5----5----5-3-5---5----3-2-3---3---3---3---3------------------------|

-|----------------------------------------------------------------------------|
-|----------------------------------------------------------------------------|
-|-------------------------------------------------4--------------------------|
-|--7--------7----5-------4---5--------5---4---5------------------------------|
-|----------------------------------------------------------------------------|
-|-----5-3-5---5----5-3-5---5----3-2-3---3---3---3---3------------------------|


Riff3 x3 1:29 - 1:47        [then:]
-|-------------------------------|--------------------------------------------|
-|-------------------------------|--------------------------------------------|
-|-------------------2----4------|------------------2---4---4---6---4---------|
-|------4---4--------------------|-----4---4----------------------------------|
-|---------------0-4---0----2----|--------------0-4---0---2---2---4---2-------|
-|-1-2----2---2------------------|-1-2---2---2--------------------------------|


guitar one plays Riff1 while Guitar2 does this weird keyboard sounding riff @ 1:48
-|14-14----14------14------14-------14---14-p13-p12-p11-p9-p5----------14~-------13~---------/14----|
-|--------------------------------------------------------------------------------------------------|
-|--------------------------------------------------------------------------------------------------|
-|--------------------------------------------------------------------------------------------------|
-|--------------------------------------------------------------------------------------------------|
-|--------------------------------------------------------------------------------------------------|

(1:53)
-|---13~-------12~-------11~--------10~-------12~--------10~-//----------------|
-|-----------------------------------------------------------------------------|
-|-----------------------------------------------------------------------------|
-|-----------------------------------------------------------------------------|
-|-----------------------------------------------------------------------------|
-|-----------------------------------------------------------------------------|

Riff5 (guitar one plays Riff2) 1:58 - 2:30
-|----------------------------------------------------------------------------|
-|--5--------5---3-------2---3--------3---2---0-------------------------------|
-|------------------------------------------------2---------------------------|
-|----------------------------------------------------------------------------|
-|----------------------------------------------------------------------------|
-|-----5-3-5---5---5-3-5---5---3-2-3----3---3---3---3-------------------------|

-|------------------------------------------------2---------------------------|
-|--5--------5---3-------2---3--------3---2---3-------------------------------|
-|----------------------------------------------------------------------------|
-|----------------------------------------------------------------------------|
-|----------------------------------------------------------------------------|
-|-----5-3-5---5---5-3-5---5---3-2-3----3---3---3---3-------------------------|


Riff1 Variation x2 @ 3:00 - 3:09
|------------------------------------------------|
|------------------------------------------------|
|------------------------------------------------|
|------------------------------------------------|
|--4-5---4-5----4-5-2-3-4----4-5----4-5-7--4-5-7-|
|2-----1------2------------2------4--------------|

The Outro consists of Riff3 played some what palm-muted x2 then
non palm-muted x4 with Riff1 also played in the backround near the end.
It ends on like G:--9\-
            
Submit corrections

comments powered by Disqus
↑ Back to top | Foreign Objects Tabs for Unsuccessful Journey Through The Astroid Belt. Lyrics for acoustic guitar and electric guitar. Tablatures and chords are parodies/interpretations of the original songs. You may use it for private study, scholarship, research or language learning purposes only