» » »

Foreign Objects, They Come In Peace Tabs (ver.2)

Artists:  A B C D E F G H I J K L M N O P Q R S T U V W X Y Z # 

They Come In Peace Tabs (ver.2)

Foreign Objects Tabs
Rating:
5/5 (1 vote)
They Come In Peace lessons Tabs too difficult? Try these video lessons and learn fast
                They Come In Peace - Foreign Objects
whole step down
various palm muting places; just mess around

INTRO RIFFS X??
-|----------------------------------------------------------------------------
-|----------------------------------------------------------------------------
-|-------5-----5-2------------------5---5-2-----------------------------------
-|-3---3-----------5--3-5-----3---3---------5--3-5---5---5---3----------------
-|---3------3-------------5-----3-----3------------5---3---1------------------
-|-----------------------------------------------------------------------------

CHORD THING
D:------------------
A:------------------
F:10-10----12-12-12-
C:x--x------x--x--x-
G:8--8-----10-10-10-
D:------8-----------

They Come In Peace; The other part.
"THE OTHER PART" [gee thanks for the detail]

Play Once:
D|------------------------|
A|------------------------|
F|-10-10---12-12-12-------|
C|-10-10---12-12-12-------|
G|-8--8----10-10-10-8-5-8-|
D|-------8----------------|

Then this twice:
0:59
D|-------------------------------|
A|-------------------------------|
F|-3-----------------------------|
C|-x--------/3-------------------|
G|-1-4-1-4------4-6-4----4---4---|
D|---------------------2---4---5-|

Then:
D|---------------------------|
A|---------------------------|
F|---------------------------|
C|---------3-----------------|
G|-1-4-1-4---4-6-4---4---4---|
D|-----------------2---4---5-|
  \_______/
    fast

Then this once:
D|--------------------------|
A|--------------------------|
F|--------------------------|
C|-----/3-------------------|
G|-1-4-----4-6-4----4---4---|
D|----------------2---4---5-|
            

comments powered by Disqus
↑ Back to top | Foreign Objects Tabs for They Come In Peace. Lyrics for acoustic guitar and electric guitar. Tablatures and chords are parodies/interpretations of the original songs. You may use it for private study, scholarship, research or language learning purposes only