>
 >
They Come In Peace

They Come In Peace Bass Tabs

Foreign Objects - They Come In Peace chords, tabs, tablatures, lyrics

Guitar lessons | Add/correct | Request | Top 50 tabs Artists:  A B C D E F G H I J K L M N O P Q R S T U V W X Y Z 0-9

They Come In Peace Bass Tabs – Foreign Objects

CD, Sheet music, Poster

Do you like They Come In Peace? Share with your friends now
Bass TabsTabsTabs v2
-------------------------------------------------------------------------------
-------------------------------------------------------------------------------
Tuning: STANDARD (EADG)


Intro
g------------|------------|
d------------|------------|
a------------|------------|
e--9-7--7----|--9-7--7----|

g------------------------------------|
d------------------------------------|
a------------------------------------|
e--9-7---7---5---4---2---0---020---0-|


Intro pt. 2
g----------------------|---------------------------|
d----------------------|---------------------------|
a----------------------|---------------------------|
e--9-7---7--77-777-777-|--9-7---7--77-777-777-7777-|

g-----------------------------------------------------|
d-----------------------------------------------------|
a-----------------------------------------------------|
e--9-7---7---5---4---2---0---020---0--00-000-000-0000-|


Pre-Verse Fill
g-------------------------------|
d-------------------------------|
a--7--7--7---7---7---7----7---7-|
e---------------------------8---|


Verse
g------------------|--------------|
d------------------|--------------|
a------------------|--------------|
e--5--5--5--5-5-5--|--1--1-3--3-4-|


(Repeat Intro, Pre-Verse, & Verse)


Breakdown
g-----------------------------------------|
d-----------------------------------------|
a-----------------------------------------|
e-0000-0000-1111-1111-2222-2222-1111-1111-|

g------------------------------------|
d------------------------------------|
a-7-7-7-7--8-8-8-8--9-9-9-9--8-8-8-8-|
e------------------------------------|


Main Theme Variation
g----------------------|---------------------------|
d----------------------|---------------------------|
a----------------------|---------------------------|
e--9-7---7--77-777-777-|--0-3---3--33-333-333-3333-|


Guitar Solo
g-------------------------|----------------------------------|
d--------6---6-3----------|--------6---6-3-------------------|
a--4---4---------4/6\4----|--4---4---------4/6\4---6---6---4-|
e----4-----4-----------6--|----4-----4-----------6---4---2---|


(Repeat Breakdown)


Outro
g------------------|------------------|------------------|-----------------|
d------------------|------------------|------------------|-----------------|
a--7--7--7--7-7-7--|--7--7--7--7-7-7--|--3--3--3--3-3-3--|--3--3--3--3-3-3-|
e------------------|------------------|------------------|-----------------|

g-------------------------|----------------------------------|
d--------6---6-3----------|--------6---6-3-------------------|
a--4---4---------4/6\4----|--4---4---------4/6\4---6---6---4-|
e----4-----4-----------6--|----4-----4-----------6---4---2---|





Comments


Popular Foreign Objects tabs & chords
Disengage The Simulator Bass Tabs
Planetary Bass Tabs
Foreign Objects # 8 Tabs
Genesis 12a Tabs
Genesis 12a 1 Tabs
Planetary 1 Tabs
They Come In Peace Tabs
They Come In Peace 1 Tabs
Unsuccessful Journey Through The Astroid Belt Tabs
Victory Tabs


Song lyrics



↑ Back to top | Tablatures and chords are parodies/interpretations of the original songs. You may use it for private study, scholarship, research or language learning purposes only
© 2014 AZChords.com Contact us | Privacy policy | DMCA | Add/correct tabs | Request tabs | Top 50 tabs