>
 >
They Come In Peace

They Come In Peace Guitar Tabs

Foreign Objects - They Come In Peace chords, tabs, tablatures, lyrics

Guitar lessons | Add/correct | Request | Top 50 tabs Artists:  A B C D E F G H I J K L M N O P Q R S T U V W X Y Z 0-9

They Come In Peace Guitar Tabs – Foreign Objects

CD, Sheet music, Poster

Do you like They Come In Peace? Share with your friends now
Bass TabsTabsTabs v2
-------------------------------------------------------------------------------
-------------------------------------------------------------------------------
Tuning: STANDARD (EADGBe)


Intro
g--------------------------|------------------------------------|
d--------9----9-6----------|--------9----9-6--------------------|
a--7---7----------9-7-9----|--7---7----------9-7-9---9---9---7--|
e----7-----77-----------9--|----7-----77-----------9---7---5----|


Pre-Verse Fill
g-----9-----11--11--11-----------|
d-----9------9---9---9-----------|
a-----7------7---7---7----7---7--|
e--0-----0------------------8----|


Verse
g--------------------|-----------------|----------------------|----------------|
d--------------------|-----------------|----------------------|----------------|
a-------/7-----5-----|-----3-----3-----|-----------/7----5----|-----3-----3----|
e--5--8-----8-----8--|--1-----3-----4--|--5h8p5--8----8----8--|--1-----3-----4-|


(Repeat Intro, Pre-Verse, and Verse)


Breakdown
g-------------------|-------------------|-------------------|------------------|
d-------------------|-------------------|-------------------|------------------|
a----2---0---2---3--|----2---0---5---3--|----2---0---2---3--|----2---0---2---3-|
e--0---0---0---0----|--1---1---1---1----|--2---2---2---2----|--1---1---1---1---|

Breakdown Cont'd - Three guitars play these three riffs:
g---------88-------|---------99-------|---------99-------|---------99-------|
d---99--99--99--99-|---99--99--99--99-|---99--99--99--99-|---99--99--99--99-|
a-77--77------77---|-88--88------88---|-99--99------99---|-88--88------88---|
e------------------|------------------|------------------|------------------|

g---44--22--44--55-|---44--22--77--55-|---44--22--44--55-|---44--22--44--55-|
d-22--22--22--22---|-33--33--33--33---|-44--44--44--44---|-33--33--33--33---|
a------------------|------------------|------------------|------------------|
e------------------|------------------|------------------|------------------|

g--------------|--------------|--------------|--------------|
d--2--2--2--2--|--3--3--3--3--|--4--4--4--4--|--3--3--3--3--|
a--x--x--x--x--|--x--x--x--x--|--x--x--x--x--|--x--x--x--x--|
e--0--0--0--0--|--1--1--1--1--|--2--2--2--2--|--1--1--1--1--|


Pre-Solo Theme
g--------------------------|------------------------------------|
d--------9----9-6----------|--------5----5-2--------------------|
a--7---7----------9-7-9----|------3----------5-3-5---5---5---3--|
e----7-----77-----------9--|--0-3-----33-----------5---3---1----|


Solo Rhythm
g--------------------------|------------------------------------|
d--------6----6-3----------|--------6----6-3--------------------|
a--4---4----------4/6\4----|--4---4----------4/6\4---6---6---4--|
e----4-----44-----------6--|----4-----44-----------6---4---2----|


Second Breakdown (A little different)
g-------------------|-------------------|-------------------|------------------|
d-------------------|-------------------|-------------------|------------------|
a----2---0---2---3--|----2---0---5---3--|----2---0---2---3--|----2---0---2---3-|
e--0---0---0---0----|--1---1---1---1----|--2---2---2---2----|--1---1---1---1---|

Breakdown Cont'd - One guitar plays this, another plays the above riff ^
g---------88-------|---------99-------|---------99-------|---------99-------|
d---99--99--99--99-|---99--99--99--99-|---99--99--99--99-|---99--99--99--99-|
a-77--77------77---|-88--88------88---|-99--99------99---|-88--88------88---|
e------------------|------------------|------------------|------------------|

Cont'd - Two guitars play these two riffs:
g---4---2---4---5--|---4---2---7---5--|---4---2---4---5--|---4---2---4---5--|
d-2---2---2---2----|-3---3---3---3----|-4---4---4---4----|-3---3---3---3----|
a------------------|------------------|------------------|------------------|
e------------------|------------------|------------------|------------------|

g--------------|--------------|--------------|--------------|
d--2--2--2--2--|--3--3--3--3--|--4--4--4--4--|--3--3--3--3--|
a--x--x--x--x--|--x--x--x--x--|--x--x--x--x--|--x--x--x--x--|
e--0--0--0--0--|--1--1--1--1--|--2--2--2--2--|--1--1--1--1--|


(Repeat Pre-Verse Fill)


Outro
g--9--9--9--9-9-9--11--11--11--11-11-11--|
d--9--9--9--9-9-9---9---9---9---9--9--9--|
a--7--7--7--7-7-7---7---7---7---7--7--7--|
e----------------------------------------|

g--5--5--5--5-5-5---7--7--7--7-7-7--|
d--5--5--5--5-5-5---5--5--5--5-5-5--|
a--3--3--3--3-3-3---3--3--3--3-3-3--|
e-----------------------------------|

g--------------------------|------------------------------------|
d--------6----6-3----------|--------6----6-3--------------------|
a--4---4----------4/6\4----|--4---4----------4/6\4---6---6---4--|
e----4-----44-----------6--|----4-----44-----------6---4---2----|





Comments


Popular Foreign Objects tabs & chords
Disengage The Simulator 1 Bass Tabs
Genesis 12a Bass Tabs
Planetary Bass Tabs
Destination Undefined 1 Tabs
Genesis 12a Tabs
Planetary Tabs
Sci Fi Mirage Tabs
Testing Tabs
They Come In Peace 1 Tabs
Victory Tabs


Song lyrics



↑ Back to top | Tablatures and chords are parodies/interpretations of the original songs. You may use it for private study, scholarship, research or language learning purposes only
© 2014 AZChords.com Contact us | Privacy policy | DMCA | Add/correct tabs | Request tabs | Top 50 tabs