» » »

Foreign Objects, Testing Tabs (ver.1)

Artists:  A B C D E F G H I J K L M N O P Q R S T U V W X Y Z # 

Testing Tabs (ver.1)

Foreign Objects Tabs
Rating:
5/5 (1 vote)
Testing lessons Tabs too difficult? Try these video lessons and learn fast
                Testing - CKY
Standard Tuning


tis Perfect


INTRO Play x4
----------------------------------------------10----12-------------10---12------|
----------10----12--------------------------------------------10----------------|
-------11----------------12----11----9---------------------------------------7--|
-9-12-------9-------9-12-----9----9----9-12-----9------9-8-7----7----7----7-----|
--------------------------------------------------------------------------------|
--------------------------------------------------------------------------------|


RIFF A Play x8
-----------------------------------------|
-----------------------------------------|
--------------2----4/6-------------------|
----------4----------------------2-----2-|
-2--5-------------------2--5-------------|
--------5----------------------3-----3---|


RIFF B Play x2
-------------------------------------------------------------|
-------------------------------------------------------------|
---------------------------------------4---4-2-----------2---|
-----------------------------------4-----4-----2---2---2-----|
-2---5-4-------2---5-4---------2-5---2-----------0---4-----0-|
---------5-2-5---------5-2-5-3-------------------------------|


INTRO Play x1
----------------------------------------------10----12-------------10---12-|
----------10----12--------------------------------------------10-----------|
-------11----------------12----11----9-------------------------------------|
-9-12-------9-------9-12-----9----9-----12-9----9-------9-8-7----7----7----|
---------------------------------------------------------------------------|
---------------------------------------------------------------------------|


RIFF A Play x8
-----------------------------------------|
-----------------------------------------|
--------------2----4/6-------------------|
----------4----------------------2-----2-|
-2--5-------------------2--5-------------|
--------5----------------------3-----3---|


RIFF B Play x4
-------------------------------------------------------------|
-------------------------------------------------------------|
---------------------------------------4---4-2-----------2---|
-----------------------------------4-----4-----2---2---2-----|
-2---5-4-------2---5-4---------2-5---2-----------0---4-----0-|
---------5-2-5---------5-2-5-3-------------------------------|


HALF INTRO Play x1
----------------------|
----------10----12----|
-------11-------------|
-9-12-------9-------9-|
----------------------|
----------------------|


BRIDGE Play x8
----------------------------------|
----------------------------------|
----------------------------------|
--------4---6---------------------|
------6------------7-7---6-7----7-|
-4-7------4---4--4------------7---|


RIFF B Play x4
-------------------------------------------------------------|
-------------------------------------------------------------|
---------------------------------------4---4-2-----------2---|
-----------------------------------4-----4-----2---2---2-----|
-2---5-4-------2---5-4---------2-5---2-----------0---4-----0-|
---------5-2-5---------5-2-5-3-------------------------------|


RIFF A Play x8
-----------------------------------------|
-----------------------------------------|
--------------2----4/6-------------------|
----------4----------------------2-----2-|
-2--5-------------------2--5-------------|
--------5----------------------3-----3---|
            
Submit corrections

comments powered by Disqus
↑ Back to top | Foreign Objects Tabs for Testing. Lyrics for acoustic guitar and electric guitar. Tablatures and chords are parodies/interpretations of the original songs. You may use it for private study, scholarship, research or language learning purposes only