>
 >
Destination Undefined 1

Destination Undefined 1 Guitar Tabs

Foreign Objects - Destination Undefined 1 chords, tabs, tablatures, lyrics

Guitar lessons | Add/correct | Request | Top 50 tabs Artists:  A B C D E F G H I J K L M N O P Q R S T U V W X Y Z 0-9

Destination Undefined 1 Guitar Tabs – Foreign Objects

CD, Sheet music, Poster

Do you like Destination Undefined 1? Share with your friends now
TabsTabs v2
-------------------------------------------------------------------------------
                             DESTINATION UNDEFINED - Foreign Objects
-------------------------------------------------------------------------------
Tuning: STANDARD (EADGBe)


Intro
e:---------------------------------|-------------------------------|
B:---------------------------------|-------------------------------|
G:--------------------------7------|-------------------------------| Gtr 1 (Left)
D:--------------------66------6h7--|--------------------66----5----|
A:--4----3----6----44----44--------|--4----3----5----44----44---3--|
E:--2----1----4--------------------|--2----1----3------------------|

e:---------------------------------|-------------------------------|
B:---------------------------------|-------------------------------|
G:--------------------------8------|-------------------------------| Gtr 2 (Right)
D:--------------------77------7h8--|--------------------66----5----|
A:--4----3----6----55----55--------|--4----3----5----44----44---3--|
E:--2----1----4--------------------|--2----1----3------------------|

e:---------------------------------|-----------------|
B:---------------------------------|-----------------|
G:--------------------------7------|-----------------| Gtr 1
D:--------------------66------6h7--|-----------------|
A:--4----3----6----44----44--------|--4----3----5----|
E:--2----1----4--------------------|--2----1----3----|

e:---------------------------------|-----------------|
B:---------------------------------|-----------------|
G:--------------------------8------|-----------------| Gtr 2
D:--------------------77------7h8--|-----------------|
A:--4----3----6----55----55--------|--4----3----5----|
E:--2----1----4--------------------|--2----1----3----|


Verse
e:-----------------------------------|-----------------------------------|
B:-----------------------------------|-----------------------------------|
G:-----------------------------------|-----------------------------------|
D:------3/5\3------------------------|------3/5\3---------------------5--|
A:------------5-3---3/5\3---3/5---3--|------------5-3---3/5\3---3/5---3--|
E:--3-6-----------6-------6-------1--|--3-6-----------6-------6----------|


Chorus
e:------------------------|------------------------|
B:------------------------|------------------------|
G:------------------------|------------------------| Gtr 1
D:------------------------|------------------------|
A:--8----8---8------------|--6----6---6------------|
E:---666--66--66-9999-66--|---444--44--44-6666-44--|

e:-----------------------------|-----------------------|
B:-----------------------------|-----------------------|
G:--10---10--10----------------|--8----8--8------------| Gtr 2
D:----888--88--88-11111111-88--|---666--66-66-8888-66--|
A:-----------------------------|-----------------------|
E:-----------------------------|-----------------------|


Post-Chorus (*'s are quick palm mutes)
e:-----------------------|-----------------------|
B:-----------------------|-----------------------|
G:-----------------------|-----------------------|
D:--------------------6--|--------------------8--|
A:--4-3---6-4----66------|--4-3---6-4----88------|
E:------4------44--44----|------4------66--66----|
               ******                  ******
e:-----------|
B:-----------|
G:--------5--|
D:--------5--|
A:--4-3---3--|
E:------4----|


(Repeat Verse)


"Your destination.. is undefined."
e:-------------------------------|-------------------------------|
B:-------------------------------|-------------------------------|
G:-------------------------------|-------------------------------|
D:--8---8--8-8----3-3-3-3-3-3-3--|--4---4--4-4----4-4-4-4-4-4-4--|
A:--8---8--8-8----4-4-4-4-4-4-4--|--6---6--6-6----1-1-1-1-1-1-1--|
E:--6---6--6-6----6-6-6-6-6-6-6--|--2---2--2-2----2-2-2-2-2-2-2--|


(Repeat Chorus)


The solo/outro is just improvised around this little pentatonic area
e:----------------------6-9--|
B:------------------6-9------|
G:--------------6-8----------|
D:----------6-8--------------|
A:------6-8------------------|
E:--6-9----------------------|

Over these chords
e:----------------------|
B:----------------------|
G:------------6---------|
D:--8----4----6----6----|
A:--8----4----4----6----|
E:--6----2---------4----|





Comments


Popular Foreign Objects tabs & chords
Planetary Bass Tabs
They Come In Peace Bass Tabs
Disengage The Simulator 1 Tabs
Far Cry Behind Tabs
Genesis 12a 1 Tabs
Planetary Tabs
Planetary 1 Tabs
They Come In Peace Tabs
Universal Culture Shock Tabs
Victory Tabs


Song lyrics



↑ Back to top | Tablatures and chords are parodies/interpretations of the original songs. You may use it for private study, scholarship, research or language learning purposes only
© 2014 AZChords.com Contact us | Privacy policy | DMCA | Add/correct tabs | Request tabs | Top 50 tabs