» » »

Foreigner, Hot Blooded Bass tabs (ver.1)

Artists:  A B C D E F G H I J K L M N O P Q R S T U V W X Y Z # 

Hot Blooded Bass tabs (ver.1)

Foreigner Tabs
 Rating:
4.2/5 (5 votes)
Hot Blooded lessons Tabs too difficult? Try these video lessons and learn fast
1
                -------------------------------------------------------------------------------
-------------------------------------------------------------------------------


Tuning:

Intro x3                                                    After 3rd time
G|---------------------------------------------------------|------------------|
D|---------------------------------------------------------|---5---5---3---0--|
A|---------------------------------------------------------|------------------|
E|----3---3---3---3---3---3---3---3---3---3---3---3---3---3|------------------|

Intro Chorus x6
G|----------------------------------------------------------------------------|
D|----------------------------------------------------------------------------|
A|----------------------------------------------------------------------------|
E|----3---3---3---3---3---3---3---3\---8---8---8---8---8---8---8---8----------|

(2) x2
G|----------------------------------------------------------------------------|
D|----------------------------------------------------------------------------|
A|----------------------------------------------------------------------------|
E|----10---10---10---10---10---10---10---10-----------------------------------|

Verse / Solo Riff x8
G|----------------------------------------------------------------------------|
D|----------------------------------------------------------------------------|
A|--------------------------3---3---------------------------------------------|
E|----3------0---3---1--------------------------------------------------------|

Pre-chorus
G|----------------------------------------------------------------------------|
D|----------------------------------------------------------------------------|
A|----3---5---5---3---5------8--8---3---3-------------------------------------|
E|----------------------------------------------------------------------------|

G|----------------------------------------------------------------------------|
D|----------------------------------------------------------------------------|
A|----3---5---5---3---5------7--7---3---3-------------------------------------|
E|----------------------------------------------------------------------------|

G|----------------------------------------------------------------------------|
D|----------------------------------------------------------------------------|
A|----3---5---5---3---5------8--8---3---3-------------------------------------|
E|----------------------------------------------------------------------------|

G|----------------------------------------------------------------------------|
D|-------------------------------------8--8---5-------------------------------|
A|----3---5---5---3---5------8--8---5-----------------------------------------|
E|----------------------------------------------------------------------------|

Chorus x3
G|-----------------------------------------------------------------------------|
D|-----------------------------------------------------------------------------|
A|-----------------------------------------------------------------------------|
E|---0---1---2---3---3---3---3---3---3---3---3\---8---8---8---8---8---8---8---8|

(2) x2                                         
G|-----------------------------------------------------------------------------|
D|-----------------------------------------------------------------------------|
A|-----------------------------------------------------------------------------|
E|----10---10---10---10---10---10---10---10------------------------------------|

________________________________________________________________________________

| /  slide up
| \  slide down
| h  hammer-on
| p  pull-off
| ~  vibrato
| +  harmonic
| x  Mute note
===============================================================================
            
Submit corrections

comments powered by Disqus
↑ Back to top | Foreigner Bass for Hot Blooded. Lyrics for acoustic guitar and electric guitar. 1 Tablatures and chords are parodies/interpretations of the original songs. You may use it for private study, scholarship, research or language learning purposes only