» » »

Foo Fighters, Everlong Tabs (ver.1)

Artists:  A B C D E F G H I J K L M N O P Q R S T U V W X Y Z # 

Everlong Tabs (ver.1)

Foo Fighters Tabs
 Rating:
4/5 (4 votes)
Everlong lessons Tabs too difficult? Try these video lessons and learn fast
1
                "Everlong"

   by Foo Fighters
   From the album "the colour and shape"
   Writen by David Grohl.

  Intro
  pm   C#                   A#                  F#         A#
  E-------------------------6--6--6--6--6--6--6/2--2--2--2/6--6--6--6------
  A----4--4--4--4--4--4--4--8--8--8--8--8--8--8/4--4--4--4/8--8--8--8------
  D----6--6--6--6--6--6--6--8--8--8--8--8--8--8/4--4--4--4/8--8--8--8------
  G----6--6--6--6--6--6--6-------------------------------------------------
  B------------------------------------------------------------------------
  E------------------------------------------------------------------------
                                         ....Play once, then play again with
                                           secong Guitar playing w/out pm,
                                           and only hitting the first chord
                                           of each.

    Verse 1

    C#       A#                 F#/A#
 Hello I've waited here for you    Everlong
    C#      A#                    F#             A#                  
 Tonight, I throw myself into and out of the red out of her head

 she sang

 Come down, and waste away with me  down with me

 Slow how you wanted it to be I'm over my head out of her head

 she sang.....


 Bridge
     C       C#      D#     E       ...and I wonder...
 E---8---8---9---9--11--11/12--12--12---------
 A--10--10--11--11--13--13/14--14--14---------
 D--10--10--11--11--13--13/14--14--14---------
 G--------------------------------------------
 B-------------------------------------------- 
 E--------------------------------------------
                                       E
                                   And I wonder
                                     E           
                                   when I sing along with you...

     
 Chorus
   A#                    F#                     C#
  If anything could ever feel this real forever

  If anything could ever be this good again....
   A#                     F#
  The only thing I'de ever ask of you, 
   G#                           A#               G#
  you've got to promise not to stop when I say when

   she said.....

 
 Verse 2

  Breath out, so i can breath you in
  
  And now, i now you've always been out of her head out of my head 

  i sang.

 Bridge

 Chorus
            
Submit corrections

comments powered by Disqus
↑ Back to top | Foo Fighters Tabs for Everlong. Lyrics for acoustic guitar and electric guitar. 1 Tablatures and chords are parodies/interpretations of the original songs. You may use it for private study, scholarship, research or language learning purposes only