>
 >
Secret Spot

Secret Spot Guitar Tabs

Fonzie - Secret Spot chords, tabs, tablatures, lyrics

Guitar lessons | Add/correct | Request | Top 50 tabs Artists:  A B C D E F G H I J K L M N O P Q R S T U V W X Y Z 0-9

Secret Spot Guitar Tabs – Fonzie

CD, Sheet music, Poster

Do you like Secret Spot? Share with your friends now
Tabs
Fonzie is a fairly recent lamme ass portuguese power pop band, but it has some good
hits such as this fine piece of surf rock known as Secret Spot.

Fonzie - Secret Spot


Although this song is played with 2 guitars, I can only figure out one at a time, so sorry.

Intro
e|------------------------------------------|
B|------------------------------------------|
G|------------------------------------------|
D|--8-8--X-X-X--8-8-8--X-X-X-X--8-8--X-X-X--|
A|--8-8--X-X-X--8-8-8--X-X-X-X--8-8--X-X-X--|
E|--6-6--X-X-X--6-6-6--X-X-X-X--6-6--X-X-X--|

e|---------------------------------------------------------------------|
B|---------------------------------------------------------------------|
G|--10-10--10-10-10--10-10-10--10-10-10-10--13-13--13-13-13--15-15-15--|
D|---------------------------------------------------------------------|
A|---8--8---8--8--8---8--8--8---8--8--8--8--11-11--11-11-11--13-13-13--|
E|----------*--*--*-------------*--*--*--*----------*--*--*------------|
Play 2 times (* - Palm mute)

e|-------------------------------------------------------------|
B|-------------------------------------------------------------|
G|--10-10-10-15-15-10-10-10-15-15--13-13-13-13-13-13--8-8-8-8--|
D|-------------------------------------------------------------|
A|---8--8--8-13-13--8--8--8-13-13--11-11-11-11-11-11--6-6-6-6--|
E|-------------------------------------------------------------|
Play 2 times

e|------------------------------------|
B|------------------------------------|
G|--13-13-13-13-15-15-18-18-18-17-17--|
D|------------------------------------|
A|--11-11-11-11-13-13-16-16-16-15-15--|
E|------------------------------------|
Play 4 times

Verse 1
e|-------------------------------------------|
B|-------------------------------------------|
G|-------------------------------------------|
D|--8-8-8-8-8-8-8-8-6-6-6-6-6-6-8-8-8-8-8-8--|
A|--8-8-8-8-8-8-8-8-6-6-6-6-6-6-8-8-8-8-8-8--|
E|--6-6-6-6-6-6-6-6-4-4-4-4-4-4-6-6-6-6-6-6--|
Play whole in palm mute

Verse 2
e|-------------------------------|
B|-------------------------------|
G|--13-15--18-17---13-15--18-17--|
D|-------------------------------|
A|--11-13--16-15---11-13--16-15--|
E|-------------------------------|

Chorus
e|-----------|
B|-----------|
G|--#--"--"--|
D|--8--4--6--|
A|--8--4--6--|
E|--6--2--4--|
# - 16 times; " - 10 times

Interlude
e|---------------------------------------------------------|
B|---------------------------------------------------------|
G|--10-10-10-10-10-10-10-10-10-10-10-10-13-13-13-13-8-8-8--|
D|---------------------------------------------------------|
A|---8--8--8--8--8--8--8--8--8--8--8--8-11-11-11-11-6-6-6--|
E|---------------------------------------------------------|
Play whole 2 times

Outro
Same as chorus but with another rythm.

Song Structure:
Intro
Verse 1
Verse 2
Verse 1
Verse 2
Chorus
Verse 1
Verse 2
Verse 1
Verse 2
Chorus (2 times)
Interlude
Outro (many times)





Comments


Popular Fonzie tabs & chords
A Tua Imagem Tabs
A Tua Imagem 1 Tabs
Crashin Down Tabs
Crashing Down Tabs
Gotta Get Away Tabs


Song lyrics



↑ Back to top | Tablatures and chords are parodies/interpretations of the original songs. You may use it for private study, scholarship, research or language learning purposes only
© 2014 AZChords.com Contact us | Privacy policy | DMCA | Add/correct tabs | Request tabs | Top 50 tabs