» » »

Fonzie, Gotta Get Away Tabs (ver.1)

Artists:  A B C D E F G H I J K L M N O P Q R S T U V W X Y Z # 

Gotta Get Away Tabs (ver.1)

Fonzie Tabs
 Rating:
3.6/5 (5 votes)
Gotta Get Away lessons Tabs too difficult? Try these video lessons and learn fast
                Fonzie - Gotta get away
Tuning: Standard


I hope you like it, it's very easy, just follow the CD and you will understand
it nicely and easy.

intro
				OH OH OH
				gotta gotta get away
e|----------------------------------|
B|----------------------------------|
G|----------------------------------|
D|--88------------------------------| (2x)
A|--88------------------------------|
E|--66------------------------------|

e|--------------------------------------------------------|
B|--------------------------------------------------------|
G|--------------------------------------------------------|
D|--8888--10101010--13131313--15151515--------8888\3333---| <- (3x)
A|--8888--10101010--13131313--15151515--(3x)--8888\3333---|
E|--6666--8-8-8-8---11111111--13131313--------6666\1131---|
								ppp
e|----------------------------------|
B|----------------------------------|
G|-3--5--7--10--8--7--5--3--3/10----|	-> second guitar playing on the third time
D|----------------------------------|
A|----------------------------------|
E|----------------------------------|



Verse
There is a place where we can go
(but you're got to leave behind you're worries)
There is a place that you don't know
(but you're got to leave behind you're stories)
e|----------------------------------|
B|----------------------------------|
G|-----------8----------------------|	<- (2x)
D|---8-------8-------3--------------|
A|---8-(4x)--6-(4x)--3--(4x)--------|
E|---6---------------1--------------|
     pm      Pm      Pm


bridge
'cause the summer's gone
and you're so alone
but the show is on
e|----------------------------------|
B|----------------------------------|
G|----------------------------------|
D|--1212121212--1010101010--88888---| <- (2x) the last chords of the second part should be PM
A|--1212121212--1010101010--88888---| 
E|--1010101010--8-8-8-8-8---66666---|


Chours
OH OH OH OH
can we go? can we go?
can we go?
we all
e|----------------------------------|
B|----------------------------------|
G|-----------8-------10-------------| <- (2x)
D|---8-------8-------10-(8x)--------|
A|---8-(4x)--6-(4x)--8--------------|
E|---6------------------------------|

...and I wonder
e|------------------------------------------------|
B|------------------------------------------------|
G|------------------------------------------------|
D|--8888--10101010--13131313--15151515--------8888| <- (2x)
A|--8888--10101010--13131313--15151515--(3x)--8888|
E|--6666--8-8-8-8---11111111--13131313--------6666|


Verse
There is some space and girls will come
(yeh you've got to leave behind your worries)
Forbidden games everyone love
(playing quarters and spin the bottle)
e|----------------------------------|
B|----------------------------------|
G|-----------8----------------------|	<- (2x)
D|---8-------8-------3--------------|
A|---8-(4x)--6-(4x)--3--(4x)--------|
E|---6---------------1--------------|
     pm      Pm      Pm
     

bridge
'cause the summer's gone
and you're so alone
but the show is on
e|----------------------------------|
B|----------------------------------|
G|----------------------------------|
D|--1212121212--1010101010--88888---| <- (2x) the last chords of the second part should be PM
A|--1212121212--1010101010--88888---| 
E|--1010101010--8-8-8-8-8---66666---|     



Solo (not completed, i'm too lazy :D)     
e|--------------------------------------------------|
B|--------------------------------------------------|
G|--5/10-10-10-10/15-14-10---15 14 12-10-19-17------|
D|--------------------------------------------------|
A|--------------------------------------------------|
E|--------------------------------------------------|
            
Submit corrections

comments powered by Disqus
↑ Back to top | Fonzie Tabs for Gotta Get Away. Lyrics for acoustic guitar and electric guitar. Tablatures and chords are parodies/interpretations of the original songs. You may use it for private study, scholarship, research or language learning purposes only