» » »

Fonzie, Crashing Down Tabs (ver.1)

Artists:  A B C D E F G H I J K L M N O P Q R S T U V W X Y Z # 

Crashing Down Tabs (ver.1)

Fonzie Tabs
 Rating:
4/5 (4 votes)
Crashing Down lessons Tabs too difficult? Try these video lessons and learn fast
1
                ----------------------------------------------------------------------------
----------------------------------------------------------------------------



VERSE:

e|---------------------------------------------------------------------------|
B|---------------------------------------------------------------------------|
G|---x---3---x---3---x---5---x---5---x---3---x---3---x---7---x---7---x-------|
D|---x---3---x---3---x---5---x---5---x---3---x---3---x---7---x---7---x-------|
A|---x---1---x---1---x---3---x---3---x---1---x---1---x---5---x---5---x-------|
E|---------------------------------------------------------------------------|

e|---------------------------------------------------------------------------|
B|---------------------------------------------------------------------------|
G|---x---5---x---5---x---5---x---5---x---3---x---3---------------------------|
D|---x---5---x---5---x---5---x---5---x---3---x---3---------------------------|
A|---x---7---x---7---x---3---x---3---x---1---x---1---------------------------|
E|---------------------------------------------------------------------------|



CHORUS:

I'm not sure of this, but you can help me


e|---------------------------------------------------------------------------|
B|---------------------------------------------------------------------------|
G|----3-3-3-3-3-3-3-3----5-5-5-5-5-5-5-5----3-3-3-3---5-5---3-3-3-3-3-3-3-3--|
D|----3-3-3-3-3-3-3-3----5-5-5-5-5-5-5-5----3-3-3-3---5-5---3-3-3-3-3-3-3-3--|
A|----1-1-1-1-1-1-1-1----3-3-3-3-3-3-3-3----1-1-1-1---3-3---1-1-1-1-1-1-1-1--|
E|---------------------------------------------------------------------------|


Then theres a part that the chorus starts like this:


e|---------------------------------------------------------------------------|
B|---------------------------------------------------------------------------|
G|------------------------------------------3-3-3-3---5-5---3-3-3-3-3-3-3-3--|
D|------------------------------------------3-3-3-3---5-5---3-3-3-3-3-3-3-3--|
A|----1--(x16 times)----3--(x16 times)------1-1-1-1---3-3---1-1-1-1-1-1-1-1--|
E|---------------------------------------------------------------------------|
      .                 .  ---> PM
   


So... I need the intro, bridge (?) and solo (?)... So help me!!!
            
Submit corrections

comments powered by Disqus
↑ Back to top | Fonzie Tabs for Crashing Down. Lyrics for acoustic guitar and electric guitar. 1 Tablatures and chords are parodies/interpretations of the original songs. You may use it for private study, scholarship, research or language learning purposes only