>
 >
Crashin Down

Crashin Down Guitar Tabs

Fonzie - Crashin Down chords, tabs, tablatures, lyrics

Guitar lessons | Add/correct | Request | Top 50 tabs Artists:  A B C D E F G H I J K L M N O P Q R S T U V W X Y Z 0-9

Crashin Down Guitar Tabs – Fonzie

CD, Sheet music, Poster

Do you like Crashin Down? Share with your friends now
Tabs
Crashin' Down - Fonzie

Intro

e-------------------------------|
b-------------------------------|
g-2/77-77-555-----77-77-555-----|
d-2/77-77-555-----77-77-555-----|
a-0/55-55-333-3-2-55-55-333-3-2-|
E-------------------------------|

e---------------------|
b---------------------|
g-------5-------2-----|
d-3-5-3---3-2-3---3-5-|
a---------------------|
E---------------------|

e-------------------------------|
b-------------------------------|
g-2/77-77-555-----77-77-555-----|
d-2/77-77-555-----77-77-555-----|
a-0/55-55-333-3-2-55-55-333-3-2-|
E-------------------------------|

e---------------------------|
b---------------------------|
g-------5-------2-----2-----|
d-3-5-3---3-2-3---3-5---5-3-|(let ring)
a---------------------------|
E---------------------------|

Verse

e-----------------------------------------------------------------------|
b-----------------------------------------------------------------------|
g-xx-3-xx-3-xx-5-xx-5-xx-3-xx-3-xx-7-xx-7-xx-5-xx-5-xx-5-xx-5-xx-3-xx-3-|
d-xx-3-xx-3-xx-5-xx-5-xx-3-xx-3-xx-7-xx-7-xx-5-xx-5-xx-5-xx-5-xx-3-xx-3-|
a-xx-1-xx-1-xx-3-xx-3-xx-1-xx-1-xx-5-xx-5-xx-7-xx-7-xx-3-xx-3-xx-1-xx-1-|
E-----------------------------------------------------------------------|

e-----------------------------------------------------------------------|
b-----------------------------------------------------------------------|
g-xx-3-xx-3-xx-5-xx-5-xx-3-xx-3-xx-7-xx-7-xx-5-xx-5-xx-5-xx-5-xx-3-xx-3-|
d-xx-3-xx-3-xx-5-xx-5-xx-3-xx-3-xx-7-xx-7-xx-5-xx-5-xx-5-xx-5-xx-3-xx-3-|
a-xx-1-xx-1-xx-3-xx-3-xx-1-xx-1-xx-5-xx-5-xx-7-xx-7-xx-3-xx-3-xx-1-xx-1-|
E-----------------------------------------------------------------------|

Chorus:

guitar 1:

e-------------------------------------------------------------------------|
b-------------------------------------------------------------------------|
g-33333333-55555555-33333333-55555555-33333333-55555555-33333333-55555555-|
d-33333333-55555555-33333333-55555555-33333333-55555555-33333333-55555555-|
a-11111111-33333333-11111111-33333333-11111111-33333333-11111111-33333333-|
E-------------------------------------------------------------------------|

e-------------------------------------------------------------------------|
b-------------------------------------------------------------------------|
g-33333333-55555555-33333333-55555555-33333333-55555555-33333333-55555555-|
d-33333333-55555555-33333333-55555555-33333333-55555555-33333333-55555555-|
a-11111111-33333333-11111111-33333333-11111111-33333333-11111111-33333333-|
E-------------------------------------------------------------------------|

guitar 2:

e--2-3-2---2-3-2---2-3-2---2-3-2---2-3-2---2-3-2---2-3-2---2-3-2---|
b-3------3-------3--------3------3-------3-------3-------3---------|
g------------------------------------------------------------------|
d------------------------------------------------------------------|
a------------------------------------------------------------------|
E------------------------------------------------------------------|

e--2-3-2---2-3-2---2-3-2---2-3-2---2-3-2---2-3-2---2-3-2---2-3-2---|
b-3------3-------3--------3------3-------3-------3-------3---------|
g------------------------------------------------------------------|
d------------------------------------------------------------------|
a------------------------------------------------------------------|
E------------------------------------------------------------------|

e--2-3-2---2-3-2---2-3-2---2-3-2---2-3-2---2-3-2---2-3-2---2-3-2---|
b-3------3-------3--------3------3-------3-------3-------3---------|
g------------------------------------------------------------------|
d------------------------------------------------------------------|
a------------------------------------------------------------------|
E------------------------------------------------------------------|

e--2-3-2---2-3-2---2-3-2---2-3-2---2-3-2---2-3-2---2-3-2---2-3-2---|
b-3------3-------3--------3------3-------3-------3-------3---------|
g------------------------------------------------------------------|
d------------------------------------------------------------------|
a------------------------------------------------------------------|
E------------------------------------------------------------------|


Verse

Chorus


Bridge:

e----------------------------------------------|
b----------------------------------------------|
g----------------------------------------------|
d-66666666-44444444-22222222-44444444-66666666-|
a-66666666-44444444-22222222-44444444-66666666-|
E-44444444-22222222-00000000-22222222-44444444-|
...................palm muted..................

e-------------|
b-------------|
g-------------|
d-22-44-66-99-|
a-22-44-66-99-|
E-00-22-44-77-|

e-------------------------------------------------|
b-------------------------------------------------|
g-------------------------------------------------|
d-xx2-xx4-xx6-xx9-xx2-xx4-xx6-xx9-xx2-xx4-xx6-xx9-|
a-xx2-xx4-xx6-xx9-xx2-xx4-xx6-xx9-xx2-xx4-xx6-xx9-|
E-xx0-xx2-xx4-xx7-xx0-xx2-xx4-xx7-xx0-xx2-xx4-xx7-|

Solo (not sure but i think its this, and I donít have the other part, CONTACT ME IF YOU DO!)

e---------------------------------------------|
b---------------------------------------------|
g---------5---------5-------5-----------5-----|
d-3-5-3---2-3-2---3-5-3---3-2-3-5-------------|
a---------------------------------------------|
E---------------------------------------------|

Chorus (different this time):

guitar 1:

e-------------------------------------------------------------------------|
b-------------------------------------------------------------------------|
g-33333333-55555555-33333333-55555555-33333333-55555555-33333333-55555555-|
d-33333333-55555555-33333333-55555555-33333333-55555555-33333333-55555555-|
a-11111111-33333333-11111111-33333333-11111111-33333333-11111111-33333333-|
E-------------------------------------------------------------------------|
  ............palm muted..............

e-------------------------------------------------------------------------|
b-------------------------------------------------------------------------|
g-33333333-55555555-33333333-55555555-33333333-55555555-33333333-55555555-|
d-33333333-55555555-33333333-55555555-33333333-55555555-33333333-55555555-|
a-11111111-33333333-11111111-33333333-11111111-33333333-11111111-33333333-|
E-------------------------------------------------------------------------|

guitar 2 (joins in after the palm muting):

e--2-3-2---2-3-2---2-3-2---2-3-2---2-3-2---2-3-2---2-3-2---2-3-2---|
b-3------3-------3--------3------3-------3-------3-------3---------|
g------------------------------------------------------------------|
d------------------------------------------------------------------|
a------------------------------------------------------------------|
E------------------------------------------------------------------|

e--2-3-2---2-3-2---2-3-2---2-3-2---2-3-2---2-3-2---2-3-2---2-3-2---|
b-3------3-------3--------3------3-------3-------3-------3---------|
g------------------------------------------------------------------|
d------------------------------------------------------------------|
a------------------------------------------------------------------|
E------------------------------------------------------------------|

e--2-3-2---2-3-2---2-3-2---2-3-2---2-3-2---2-3-2---2-3-2---2-3-2---|
b-3------3-------3--------3------3-------3-------3-------3---------|
g------------------------------------------------------------------|
d------------------------------------------------------------------|
a------------------------------------------------------------------|
E------------------------------------------------------------------|





Comments


Popular Fonzie tabs & chords
A Tua Imagem Tabs
A Tua Imagem 1 Tabs
Crashing Down Tabs
Gotta Get Away Tabs
Secret Spot Tabs


Song lyrics



↑ Back to top | Tablatures and chords are parodies/interpretations of the original songs. You may use it for private study, scholarship, research or language learning purposes only
© 2014 AZChords.com Contact us | Privacy policy | DMCA | Add/correct tabs | Request tabs | Top 50 tabs