» » »

Fobia, Vivo Tabs (ver.1)

Artists:  A B C D E F G H I J K L M N O P Q R S T U V W X Y Z # 

Vivo Tabs (ver.1)

Fobia Tabs
 Rating:
4.2/5 (5 votes)
Vivo lessons Tabs too difficult? Try these video lessons and learn fast
1
                INTRO: C   Am

(Riff) de teclado arreglado para guitarra
E|----------------------------------------------------------------| 
D|----------------------------------------------------------------|
G|--12--12--14--12--12p14------------------------------(2veces)---|
D|-------------------------14--14--15--14--14--15--14-------------|
A|-------------------------------------------------------------15-|
E|----------------------------------------------------------------|


C               Am
Nos ahogaremos juntos
C               Am
en aguas que todos quieren probar
C               Am
sin importarnos como es el final
C                 Am               
no hay otras vidas, tierra nada más


C             Am
Caminaremos juntos
C             Am
escaparemos de la realidad
C              Am
si tropezamos no nos dolerá
C                   Am            F
no existen cuerpos, mentes nada mas
     
   G             Em
eres sangre tibia y yo 
           F
me siento vivo
G         C   Am
uoo o o o o..

C                 Am         
Transformaremos  mundos
C              Am
Inventaremos mares que cruzar
C               Am
Si nos perdemos nada pasara
C                  Am            F
Ahora lo entiendo, amar es liberar

 G             Em
eres sangre tibia y yo 
           F
me siento vivo
G         C   Am
uoo o o o o..



 C        Am      
me siento vivo
         
uoo o o o o
 C        Am
me siento vivo 
         
uoo o o o o
 Em         
me siento vivo 
F       G         
uoo o o o o
            
SOLO:      h= hammer   /=slide     b=Bend    ~~=Vibrato

E|---------------------------------------------------------|
B|---------------------------------------------------------|
G|--7b--7-5h7-----7b--7-5h7----7b---7--5--2-0-2-5-0-2-5~~--|
D|---------------------------------------------------------|
A|---------------------------------------------------------|
E|---------------------------------------------------------|

E|---------------------------------------------------------|
B|-----------8---------------------------------------------|
G|--5-7--7/9---9-7-5-----------------------------5-2-5-2---|
D|--------------------7-5--------------------2-5-----------|
A|-------------------------7-5--3-5-3----3-5---------------|
E|---------------------------------------------------------|

E|---------------------------------------------------------|
B|--3/5-----5/10-------------------------------------------|
G|-------5--------10---------------------------------------|
D|---------------------------------------------------------|
A|---------------------------------------------------------|
E|---------------------------------------------------------|

(repetir coro)


Bm                D         
Transformaremos  mundos
Bm              D
Inventaremos mares que cruzar
Bm               D
Si nos perdemos nada pasara
Bm                  D            G
Ahora lo entiendo, amar es liberar

A             F#m
Eres sangre tibia y yo 
           G
Me siento vivo
A         D   Bm
uoo o o o o..

Terminar con:   Bm    D 
(AL mismo ritmo que el intro de C, y Am)
            
Submit corrections

comments powered by Disqus
↑ Back to top | Fobia Tabs for Vivo. Lyrics for acoustic guitar and electric guitar. 1 Tablatures and chords are parodies/interpretations of the original songs. You may use it for private study, scholarship, research or language learning purposes only