» » »

Fobia, No Eres Yo Tabs (ver.2)

Artists:  A B C D E F G H I J K L M N O P Q R S T U V W X Y Z # 

No Eres Yo Tabs (ver.2)

Fobia Tabs
Rating:
0/5 (0 votes)
No Eres Yo lessons Tabs too difficult? Try these video lessons and learn fast
                 °No Eres Yo° 
   -Fobia- 
 *Rosa Venus*

Intro: 

|---------------------||------------13-------13----------||
|---------------------||°------13---------13----13------°||
|---^^-^^-^-^-^^------||-----14--------14----------------||  x4
|-15-15-15-15-15-15---||-15------------------------------|| 
|---------------------||°-------------------------------°||
|---------------------||---------------------------------||




Verso:
                                       
   F                                                                         
||--------------------------------------------------------------------------|  
||°-------------------------------------------------------------------------| 
||--14-14-14-14-14-14-14-14-15-15-15-15-14-14-14-14-14-14-14-14-14-14-14-14-|  
||--15-15-15-15-15-15-15-15-15-15-15-15-15-15-15-15-15-15-15-15-15-15-15-15-|
||°-------------------------------------------------------------------------|
||--------------------------------------------------------------------------| 


   Dm
 |--------------------------------------------------------------------------||   
 |-15-15-15-15-15-15-15-15-15-15-15-15-15-15-15-15-15-15-15-15-15-15-15-15-°||   
 |-14-14-14-14-14-14-14-14-14-14-14-14-14-14-14-14-14-14-14-14-14-14-14-14--||   
 |--------------------------------------------------------------------------||
 |-------------------------------------------------------------------------°|| 
 |--------------------------------------------------------------------------|| 




Pre-coro:
                              
    A#                F                         Dm                Gm
||------------------|-------------------------|-----------------|------------------||
||°-----------------|-------------------------|-----------------|-----------------°||
||------------------|-------------------------|-----------------|------------------||
||------------------|-10-10-10-10-10-10-10-10-|-7-7-7-7-7-7-7-7-|------------------||
||°-8-8-8-8-8-8-8-8-|-8--8--8--8--8--8--8--8--|-5-5-5-5-5-5-5-5-|-5-5-5-5-5-5-5-5-°||
||--6-6-6-6-6-6-6-6-|-------------------------|-----------------|-3-3-3-3-3-3-3-3--||




Coro:
                    
    D                 A#
||------------------|------------------||
||°-----------------|-----------------°||     
||------------------|------------------||  x3   
||--7-7-7-7-7-7-7-7-|------------------||     
||°-5-5-5-5-5-5-5-5-|-8-8-8-8-8-8-8-8-°||     
||------------------|-6-6-6-6-6-6-6-6--||

   F                
 |-------------------------|-------------------------||
 |-------------------------|-------------------------||     
 |-------------------------|-------------------------||     
 |-10-10-10-10-10-10-10-10-|-10-10-10-10-10-10-10-10-||     
 |-8--8--8--8--8--8--8--8--|-8--8--8--8--8--8--8--8--||     
 |-------------------------|-------------------------||



Puente: 

||------------13-------13----------||
||°------13---------13----13------°||
||-----14--------14----------------||  x4
||-15------------------------------|| 
||°-------------------------------°||
||---------------------------------||




Verso:
                                       
   F                                                                         
||--------------------------|-------------------------|-------------------------|  
||°-------------------------|-------------------------|-------------------------| 
||--14-14-14-14-14-14-14-14-|-15-15-15-15-14-14-14-14-|-14-14-14-14-14-14-14-14-|  
||--15-15-15-15-15-15-15-15-|-15-15-15-15-15-15-15-15-|-15-15-15-15-15-15-15-15-|
||°-------------------------|-------------------------|-------------------------|
||--------------------------|-------------------------|-------------------------| 


   Dm
 |-------------------------|-------------------------|--------------------------||   
 |-15-15-15-15-15-15-15-15-|-15-15-15-15-15-15-15-15-|-15-15-15-15-15-15-15-15-°||   
 |-14-14-14-14-14-14-14-14-|-14-14-14-14-14-14-14-14-|-14-14-14-14-14-14-14-14--||   
 |-------------------------|-------------------------|--------------------------||
 |-------------------------|-------------------------|-------------------------°|| 
 |-------------------------|-------------------------|--------------------------|| 




Pre-coro:
                              
    A#                F                         Dm                Gm
||------------------|-------------------------|-----------------|------------------||
||°-----------------|-------------------------|-----------------|-----------------°||
||------------------|-------------------------|-----------------|------------------||
||------------------|-10-10-10-10-10-10-10-10-|-7-7-7-7-7-7-7-7-|------------------||
||°-8-8-8-8-8-8-8-8-|-8--8--8--8--8--8--8--8--|-5-5-5-5-5-5-5-5-|-5-5-5-5-5-5-5-5-°||
||--6-6-6-6-6-6-6-6-|-------------------------|-----------------|-3-3-3-3-3-3-3-3--||




Coro:
                    
    D                 A#
||------------------|------------------||
||°-----------------|-----------------°||     
||------------------|------------------||  x3   
||--7-7-7-7-7-7-7-7-|------------------||     
||°-5-5-5-5-5-5-5-5-|-8-8-8-8-8-8-8-8-°||     
||------------------|-6-6-6-6-6-6-6-6--||

   F                
 |-------------------------||
 |-------------------------||     
 |-------------------------||     
 |-10-10-10-10-10-10-10-10-||     
 |-8--8--8--8--8--8--8--8--||     
 |-------------------------||


   D                 A#
||------------------|------------------||
||°-----------------|-----------------°||     
||------------------|------------------||  x3   
||--7-7-7-7-7-7-7-7-|------------------||     
||°-5-5-5-5-5-5-5-5-|-8-8-8-8-8-8-8-8-°||     
||------------------|-6-6-6-6-6-6-6-6--||

   F                
||--------------------------|-------------------------||
||°-------------------------|------------------------°||     
||--------------------------|-------------------------||     
||--10-10-10-10-10-10-10-10-|-10-10-10-10-10-10-10-10-||     
||°-8--8--8--8--8--8--8--8--|-8--8--8--8--8--8--8--8-°||     
||--------------------------|-------------------------||

 



Final:


||----------------------------------------||
||°--------------------------------------°||
||-1414141414141414-1515-14-1515-14-1515--||  x6
||-1515151515151515-1515-15-1515-15-1515--||
||°--------------------------------------°||
||----------------------------------------||

 |----||
 |----||
 |-14-||
 |-15-||
 |----||
 |----||



----------------------------------------------------------------------------------
INTRO [ F ]

  F
   No necesito un trago mas
                Dm
   para tener valor

   para acercarme a ti
                F
   para decirtelo

  F
   El mundo nunca fue
                  Dm
   cuadrado para mi

   no me cuestiones mas

                  A#
   yo soy feliz asi
                      F
   no hay anda que pedir
                   Dm
   contigo tengo todo
                  Gm
   tenia que ocurrir
                 A#
   de todos modos

                  F
   no puedo imaginar
                     Dm
   que el dia de mañana
                     Gm
   nos tiene que llegar
                 (Dm)
   me quieras o no


  Dm             A#
   no entiendes por que no eres yo
  Dm             A#
   no entiendes por que no eres yo
  Dm             A#              F
   no entiendes por que no eres yo


    [ F ]

  F
   No necesito una razon
                Dm
   para contradecir

   no trate de ofender

   puedes sentirlo

  F
   No necesito tu permiso
               Dm
   para continuar

   si fuimos hechos diferentes
                    A#
   para completarnos

                       F
   no hay nada que decir
                   Dm
   contigo tengo todo
                  Gm
   tenia que ocurrir
                 A#
   de todos modos


                  F
   no quiero imaginar
                     Dm
   que el dia de mañana
                     Gm
   nos tiene que llegar
                 (Dm)
   querramos o no


  Dm             A#
   no entiendes por que no eres yo
  Dm             A#
   no entiendes por que no eres yo
  Dm             A#              F
   no entiendes por que no eres yo

  Dm             A#
   no entiendes por que no eres yo
  Dm             A#
   no entiendes por que no eres yo
  Dm             A#              F
   no entiendes por que no eres yo

               [ F ]
            

comments powered by Disqus
↑ Back to top | Fobia Tabs for No Eres Yo. Lyrics for acoustic guitar and electric guitar. Tablatures and chords are parodies/interpretations of the original songs. You may use it for private study, scholarship, research or language learning purposes only