» » »

Hoy Tengo Miedo Tabs (ver.4)

Artists:  A B C D E F G H I J K L M N O P Q R S T U V W X Y Z # 

Hoy Tengo Miedo Tabs (ver.4)

Fobia
Rating:
0/5 (0 votes)

Tabs too difficult? Try these video lessons and learn fast.
                intro bass

Hoy tengo miedo de salir otra vez
Tengo miedo de encontrarte como aquella vez
Los nervios me taricionan me derrota el estres
Se que puedo arrepentirme después

Fig. 1
se puede tocar con dos guitarras una como
con distor y otra con Chorus
e|-------------------|-------------------|
B|-------------------|--------14---------|
G|-----9--------11---|----13------13-----|
D|---9---9----11--11-|-11------------11--|
A|-7--------9--------|-------------------|
E|-------------------|-------------------|

e|-------------------|-------------------|
B|-----14-------12---|--------10---------|
G|---13--13---11--11-|----9-------9------|
D|-11-------9--------|-7-------------7---|
A|-------------------|-------------------|
E|-------------------|-------------------|


Con Fig. 1

Hoy tengo miedo de salirte a buscar
Tengo miedo de poderte encontrar
Tengo miedo de tus ojos tengo miedo de hablar
tengo miedo de quererte besar

Fig. 2
aqui una guitarra deja sonar las cuardas y la otra no
e|-----5--------4----|-----9--------10----|
B|---5----5---4----4-|---9----9---10---10-|
G|-2--------1--------|-6--------7---------|
D|-------------------|--------------------|
A|-------------------|--------------------|
E|-------------------|--------------------|

e|-----9--------9----|-----5--------5----|
B|---9----9---9----9-|---5----5---5----5-|
G|-6--------6--------|-2--------2--------|
D|-------------------|-------------------|
A|-------------------|-------------------|
E|-------------------|-------------------|


Con Fig. 2

Me digo no seas tonto no seas tan esceptico
No trates de escapar






Hoy tengo miedo de volver a bailar
Tengo miedo que te puedas burlar
Me dan miedo las personas no quiero manejar
Tengo miedo que me pueda gustar

Fig. 3

e|--------------|---------------|--------------|--------------|
B|--------------|---------------|--------------|--------------|
G|--------------|---------------|--------------|--------------|
D|-9------------|-6-------------|-6------------|-2------------|
A|-7------------|-4-------------|-4------------|-0------------|
E|--------------|---------------|--------------|--------------|

Hoy tengo miedo de salir otra vez
tengo miedo de volver a caer
Me dan miedo las mentiras ya no tengo mas fe
Tengo miedo de volver a creer

Fig. 3

e|--------------|---------------|--------------|--------------|
B|--------------|---------------|--------------|--------------|
G|--------------|---------------|--------------|--------------|
D|-9------------|-6-------------|-6------------|-2------------|
A|-7------------|-4-------------|-4------------|-0------------|
E|--------------|---------------|--------------|--------------|

Fig. 1
e|-------------------|-------------------|
B|-------------------|--------14---------|
G|-----9--------11---|----13------13-----|
D|---9---9----11--11-|-11------------11--|
A|-7--------9--------|-------------------|
E|-------------------|-------------------|

e|-------------------|-------------------|
B|-----14-------12---|--------10---------|
G|---13--13---11--11-|----9-------9------|
D|-11-------9--------|-7-------------7---|
A|-------------------|-------------------|
E|-------------------|-------------------|

Hoy tengo miedo de salir otra vez
tengo miedo de volver a caer
Me dan miedo las mentiras ya no tengo mas fe
Tengo miedo de volver a creer










Me digo no seas tonto no seas tan esceptico
No trates de escapar

Fig. 2
e|-----5--------4----|-----9--------10----|
B|---5----5---4----4-|---9----9---10---10-|
G|-2--------1--------|-6--------7---------|
D|-------------------|--------------------|
A|-------------------|--------------------|
E|-------------------|--------------------|

e|-----9--------9----|-----5--------5----|
B|---9----9---9----9-|---5----5---5----5-|
G|-6--------6--------|-2--------2--------|
D|-------------------|-------------------|
A|-------------------|-------------------|
E|-------------------|-------------------|

Me digo no seas tonto no seas tan esceptico
No trates de escapar


Fill 1

e|--------------|
B|-14---------\-| Este   slide  entra   sobre
G|--------------| el  cuarto  compas  de   la
D|--------------| fig. 2 y se hace lentamente
A|--------------| hasta   el   final de  este
E|--------------|


Con Fig. 4 y 4a                          |
                                         |
No todos son tan malos no todo esta mal  |__ x2
No todos son villanos queriendo te matar |
no todo esta perdido ni se va a acabar   |
La vida es un picnic                    _|

Fig. 4 y 4a

e|--------------|---------------|---------------|---------------|
B|--------------|---------------|-------14------|-------14------|
G|-------9------|-------11------|----13----13---|----13----13---|
D|----9-----9---|----11----11---|-11---------11-|-11---------11-|
A|-7----------7-|-9-----------9-|---------------|---------------|
E|--------------|---------------|---------------|---------------|
 |a
e|--------------|---------------|---------------|---------------|
B|-------12-----|-------12------|-------12------|-------12------|
G|-9--13-----13-|-11-13-----13--|----13-----13--|----13-----13--|
D|--------------|---------------|-11------------|-11------------|
A|--------------|---------------|---------------|---------------|
E|--------------|---------------|---------------|---------------|

                                        _

Puente

Fig. 5 y 3     [x2]

Fig. 5

e|----------------|----------------|
B|----------------|----------------|
G|-----13------13-|-----13------13-|
D|-11------11-----|-11------11-----|
A|----------------|----------------|
E|----------------|----------------|

e|----------------|----------------|
B|----------------|----------------|
G|-----13------13-|-----14------14-|
D|-11------11-----|-11------11-----|
A|----------------|----------------|
E|----------------|----------------|
Fig. 3

e|--------------|---------------|--------------|--------------|
B|--------------|---------------|--------------|--------------|
G|--------------|---------------|--------------|--------------|
D|-9------------|-6-------------|-6------------|-2------------|
A|-7------------|-4-------------|-4------------|-0------------|
E|--------------|---------------|--------------|--------------|


Fig. 5, 1 y 3  [x1]

Fig. 5
e|----------------|----------------|
B|----------------|----------------|
G|-----13------13-|-----13------13-|
D|-11------11-----|-11------11-----|
A|----------------|----------------|
E|----------------|----------------|

e|----------------|----------------|
B|----------------|----------------|
G|-----13------13-|-----14------14-|
D|-11------11-----|-11------11-----|
A|----------------|----------------|
E|----------------|----------------|
Fig. 1
e|-------------------|-------------------|
B|-------------------|--------14---------|
G|-----9--------11---|----13------13-----|
D|---9---9----11--11-|-11------------11--|
A|-7--------9--------|-------------------|
E|-------------------|-------------------|





e|-------------------|-------------------|
B|-----14-------12---|--------10---------|
G|---13--13---11--11-|----9-------9------|
D|-11-------9--------|-7-------------7---|
A|-------------------|-------------------|
E|-------------------|-------------------|



Con Fig. 2 y 5a

Me digo no seas tonto no seas tan esceptico
No trates de escapar
Fig. 2
e|-----5--------4----|-----9--------10----|
B|---5----5---4----4-|---9----9---10---10-|
G|-2--------1--------|-6--------7---------|
D|-------------------|--------------------|
A|-------------------|--------------------|
E|-------------------|--------------------|

e|-----9--------9----|-----5--------5----|
B|---9----9---9----9-|---5----5---5----5-|
G|-6--------6--------|-2--------2--------|
D|-------------------|-------------------|
A|-------------------|-------------------|
E|-------------------|-------------------|
Fig. 5a

e|------------------|------------------|
B|------------------|------------------|
G|---13--13--13--13-|---13--13--14--14-|
D|-11--11--11--11---|-11--11--11--11---|
A|------------------|------------------|
E|------------------|------------------|

e|------------------|------------------|
B|------------------|------------------|
G|---13--13--13--13-|---14--14--14--14-|
D|-11--11--11--11---|-11--11--11--11---|
A|------------------|------------------|
E|------------------|------------------|


Fill 2

e|------------------|
B|-/-------------14-|
G|-/-------------14-| Similar al Fill 1
D|------------------|
A|------------------|
E|------------------|

                                        _



Con Fig. 4 y 4a                          |
                                         |
No todos son tan malos no todo esta mal  |
No todos son villanos queriendo te matar |__ x2
No todo esta perdido ni se va a acabar   |
La vida es un picnic                     |
Fig. 4 y 4a

e|--------------|---------------|---------------|---------------|
B|--------------|---------------|-------14------|-------14------|
G|-------9------|-------11------|----13----13---|----13----13---|
D|----9-----9---|----11----11---|-11---------11-|-11---------11-|
A|-7----------7-|-9-----------9-|---------------|---------------|
E|--------------|---------------|---------------|---------------|

Fig.4a
e|--------------|---------------|---------------|---------------------------------------|
B|-------12-----|-------12------|-------12------|-------12------------------------------|
G|-9--13-----13-|-11-13-----13--|----13-----13--|----13-----13--------------------------|
D|--------------|---------------|-11------------|-11------------------------------------|
A|--------------|---------------|---------------|---------------------------------------|
E|--------------|---------------|---------------|---------------|                    ---|
Fig. 6
Se toca con delay y chorus

e|----------10-------|---------9----------|
B|-----7h10----------|-----6h9------------|
G|-7h9---------------|-6h8----------------|
D|-------------------|--------------------|
A|-------------------|--------------------|
E|-------------------|--------------------|

e|----------10-------|---------9----------|
B|-----7h10----------|-----6h9------------|
G|-7h9---------------|-6h8----------------|
D|-------------------|--------------------|
A|-------------------|--------------------|
E|-------------------|--------------------|


Con Fig. 4a y 6

oooh     ohh ohh
oooh     ohh ooh
ooooooooooouuuuh
Fig.4a
e|--------------|---------------|---------------|---------------|
B|-------12-----|-------12------|-------12------|-------12------|
G|-9--13-----13-|-11-13-----13--|----13-----13--|----13-----13--|
D|--------------|---------------|-11------------|-11------------|
A|--------------|---------------|---------------|---------------|
E|--------------|---------------|---------------|---------------|





Fig. 6
e|----------10-------|---------9----------|
B|-----7h10----------|-----6h9------------|
G|-7h9---------------|-6h8----------------|
D|-------------------|--------------------|
A|-------------------|--------------------|
E|-------------------|--------------------|

e|----------10-------|---------9----------|
B|-----7h10----------|-----6h9------------|
G|-7h9---------------|-6h8----------------|
D|-------------------|--------------------|
A|-------------------|--------------------|
E|-------------------|--------------------|

Final

e|------------------|
B|------------------|
G|-9----------------|
D|-9----------------|
A|-7----------------|
E|------------------|
            
Tabs too difficult? Try these video lessons and learn fast.


comments powered by Disqus
↑ Back to top | Tablatures and chords are parodies/interpretations of the original songs. You may use it for private study, scholarship, research or language learning purposes only