>
 >
This Orient

This Orient Guitar Tabs

Foals - This Orient chords, tabs, tablatures, lyrics

Guitar lessons | Add/correct | Request | Top 50 tabs Artists:  A B C D E F G H I J K L M N O P Q R S T U V W X Y Z 0-9

This Orient Guitar Tabs – Foals

CD, Sheet music, Poster

Do you like This Orient? Share with your friends now
Bass TabsBass Tabs v2ChordsTabsUkulele
This is tabbed from a "foals live in session" thing, and is right to that :)

Guitar 1 - Jimmy Smith

Intro/Verse
e|----------------------------------|
B|----------------------------------|
G|----------------------------------|
D|---19-16------16----19-16------16-|
A|17------17-19-----17-----17-19----|
E|----------------------------------|

Chorus
e|-----------0--0--0--0--0--0--0--0--0--0--0--0--0---------|
B|---------17-17-17-17-17-17-17----15----------------------|
G|14----------------------------16-------------------------|
D|16-(x32)----------------------------17-17-17-17-14-14----|
A|17----------------------------------------------------17-|
E|---------------------------------------------------------|

e|----------------------------------------------------------------|
B|----------------------------------------------------------------|
G|--14------14----------------14-------14------14------14------14-|
D|16--16--16--16--16-17-16--16--16---16--16--16--16--16--16--16---|
A|------17------17--------17------17-------17------17------17-----|
E|----------------------------------------------------------------|

e|--0--0--0--0--0--0--0--0--0--0--0--0--0---------|
B|17-17-17-17-17-17-17----15----------------------|
G|---------------------16-------------------------|
D|---------------------------17-17-17-17-14-14----|
A|---------------------------------------------17-|
E|------------------------------------------------|

Verse 2 and Chorus 2 are same

During break just play Intro

On the last Chorus he plays something a bit different
not 100% on this part. hard to hear

e|----------------------------------------------------------------------------|
B|--17--17---------17--17---------17--17----------17--17---------17--17-------|
G|19--19--19--19-19--19--19--19-19--19--19--19--19--19--19--19-19--19--19--19|
D|----------19-------------19-------------19--------------19-------------19---|
A|----------------------------------------------------------------------------|
E|----------------------------------------------------------------------------|

e|----17---------17---------17---------17---------17-----|
B|--21--21-----21--21-----21--21-----21--21-----21--21---|
G|19------19-19------19-19------19-19------19-19------19-|
D|-------------------------------------------------------|
A|-------------------------------------------------------|
E|-------------------------------------------------------|

Guitar 2 - Yannis Phillipakis

Intro - comes in a bit late
e|----------------------------------------------|
B|----------------------------------------------|
G|1414141414-14-1414141414-1414141414-14--14-14-|
D|1616161616-16-1616161616-1616161616-16--16-16-|
A|----------------------------------------------|
E|----------------------------------------------|

End of Verse 1 BUILD UP
e|0000000000000000-|
B|5555555555555555-|
G|-----------------|
D|-----------------|
A|-----------------|
E|-----------------|

Chorus ~ = tremolo pickin' baybeh
e|0~~~~~~~~~~~~~~~~~~~~~~~~~~~~~~~~~~~~~~0~~~~~~~~~0~~~~0~~~~~~~~~~~~~~~-|
B|17~~~~~~~~~~~~~~~~~~~~~~~~~~~~~~~~~~~~~15~~~~~~~~14~~~15~~~~~~~~~~~~~~-|
G|-----------------------------------------------------------------------|
D|-----------------------------------------------------------------------|
A|-----------------------------------------------------------------------|
E|-----------------------------------------------------------------------|

e|0~~~~~~~~~~~~~~~~~~~~~~~~0~~~~~~~~~~~~~~~0~~~~~~~~~0~~~~0~~~~~~~~~~~~~~~-|
B|15~~~~~~~~~~~~~~~~~~~~~~~17~~~~~~~~~~~~~~15~~~~~~~~14~~~15~~~~~~~~~~~~~~-|
G|-------------------------------------------------------------------------|
D|-------------------------------------------------------------------------|
A|-------------------------------------------------------------------------|
E|-------------------------------------------------------------------------|

Verse 2
e|------------------------------|
B|------------------------------|
G|--18--1918--18---18--1918--18-|
D|19--19----19---19--19----19---|
A|------------------------------|
E|------------------------------|

Build Up

Chorus 

Break - I dont think Yannis plays anything here

Last Chorus is the same :)

tis all, should be mostly correct

THIS SONG!!!! <3





Comments


Popular Foals tabs & chords
Mathletics Bass Tabs
Total Life Forever 2 Bass Tabs
Two Steps, Twice Bass Tabs
Alabaster Tabs
Bluebird Tabs
Cassius 1 Tabs
Olympic Airways Intro Tabs
Prelude Intro Tabs
Spanish Sahara Tabs
Total Life Forever Tabs


Song lyrics



↑ Back to top | Tablatures and chords are parodies/interpretations of the original songs. You may use it for private study, scholarship, research or language learning purposes only
© 2014 AZChords.com Contact us | Privacy policy | DMCA | Add/correct tabs | Request tabs | Top 50 tabs