» » »

Spanish Sahara Tabs (ver.4)

Artists:  A B C D E F G H I J K L M N O P Q R S T U V W X Y Z # 

Spanish Sahara Tabs (ver.4)

Foals
Rating:
5/5 (1 vote)

Hard to play? Try these video lessons and learn fast.
                
    Now, the song is very repetitive, so I'm only going to post the main bits.


 Standard Tuning

You can figure out the rhythm and timing fairly easily on your own. This may be an
higher sometimes, but they're the same notes, have a play around with it.
Verse:
E---------------------|
B---------------------|
G---------------------|
D--3---7---10---7---5-|
A--3---7---10---7---5-|
E--1---5---8----5---3-|

Then it's the same for the chorus.

 For the bridge when it starts to get faster, simply start strumming the chords at a 
rhythm.


 Solo/Riff


E--8-8-8-7-7-7-5-5-5------8-8-8-7-7-7-5-5-5------8-8-8-7-7-7-5-5-5-7-7-7-8-8-|
B-------------------6-8-5------------------6-8-5-----------------------------|
G----------------------------------------------------------------------------|
D----------------------------------------------------------------------------|
A----------------------------------------------------------------------------|
E----------------------------------------------------------------------------|

E-8-7-7-7-8-8-8-7-7-7-12-12-12-10-10-10-8-8-8-----12-12-12-10-10-10-8-8-8-10-|
B--------------------------------------------6-8-5---------------------------|
G----------------------------------------------------------------------------|
D----------------------------------------------------------------------------|
A----------------------------------------------------------------------------|
E----------------------------------------------------------------------------|

E-----10-10--8-10-8-10-10-10-8-10-10-8-10-10---------|
B----------------------------------------------------|
G----------------------------------------------------|
D----------------------------------------------------|
A----------------------------------------------------|
E----------------------------------------------------|


That's pretty much the main part to it :) enjoy!
            
Hard to play? Try these video lessons and learn fast. | Correct




comments powered by Disqus
↑ Back to top | Tablatures and chords are parodies/interpretations of the original songs. You may use it for private study, scholarship, research or language learning purposes only