>
 >
Olympic Airways

Olympic Airways Bass Tabs

Foals - Olympic Airways chords, tabs, tablatures, lyrics

Guitar lessons | Add/correct | Request | Top 50 tabs Artists:  A B C D E F G H I J K L M N O P Q R S T U V W X Y Z 0-9

Olympic Airways Bass Tabs – Foals

CD, Sheet music, Poster

Do you like Olympic Airways? Share with your friends now
Bass TabsTabs
-------------------------------------------------------------------------------
-------------------------------------------------------------------------------



Tuning: (EADG)

Nice bassline that is pretty easy to play, from a highly recommended album. Comments appreciated!

Guitar Intro

Main Riff - 0:27 - 1:08

G|---------------------------------------------------------------------------|
D|-----------------------------5-5-5----5-7-7-7-5----------------------------|
A|----------5-7-3-3-3------5-7--------7-----------7-5------------------------|
E|---5-5-5-------------------------------------------------------------------|

Chorus Riff - 1:08 - 1:22

G|--------------------4--5-5-5-5--7-7-7-7--9---------------------------------|
D|---7-7-7-7-7-7-7-7---------------------------------------------------------|
A|---------------------------------------------------------------------------|
E|---------------------------------------------------------------------------|

Main Riff - 1:22 - 1:50 (End on E-5)

G|---------------------------------------------------------------------------|
D|-----------------------------5-5-5----5-7-7-7-5----------------------------|
A|----------5-7-3-3-3------5-7--------7-----------7-5------------------------|
E|---5-5-5--------------------------------------------- (5) -----------------|

Rest Until 1:57

Bridge - 

 1:57 - 2:04

G|------------5-5-7----5-5-4-------------------------------------------------|
D|---7-7-7-7---------5-------------------------------------------------------|
A|---------------------------------------------------------------------------|
E|---------------------------------------------------------------------------|

2:04 - 2:17

G|---------------------5-5-5-------------------------------------------------|
D|---7-7-7-7-7-7-7-7-7-------------------------------------------------------| ( X2 )
A|---------------------------5-5-5-5-5-5-7-7-7-------------------------------|
E|---------------------------------------------5-5-5-------------------------|

2:17 - 2:38

G|---------------------5-5-5--7-7-7-7-7-7------------------------------------|
D|---7-7-7-7-7-7-7-7-7---------------------5-5-5-5-5-5-----------------------| ( X3 )
A|---------------------------------------------------------------------------|
E|---------------------------------------------------------------------------|

2:38 - 2:45

G|---------------------5-5-5--7-7-7-7-7-7--9-9-9-9-9-9-----------------------|
D|---7-7-7-7-7-7-7-7-7-------------------------------------------------------| ( X1 )
A|---------------------------------------------------------------------------|
E|---------------------------------------------------------------------------|

2:45 - 2:52

G|---------------------5-5-5-------------------------------------------------|
D|---7-7-7-7-7-7-7-7-7-------------------------------------------------------| ( X1 )
A|---------------------------5-5-5-5-5-5-7-7-7-------------------------------|
E|---------------------------------------------5-5-5-------------------------|

2:52 - 3:05

G|---------------------5-5-5-------------------------------------------------|
D|---7-7-7-7-7-7-7-7-7--------------------------------7~ --------------------|
A|---------------------------5-5-5-5-5-5--7-7-7-7-7-7------------------------|
E|---------------------------------------------------------------------------|

3:05 - 3:12

G|---------------------------------------------------------------------------|
D|-----------------------5-------5-7-7-7-5-----------------------------------|
A|---------5-7-3-----5-7-------7-----------7-5-------------------------------|
E|---5-----------------------------------------------------------------------|

3:12 - 3:20

G|---------------------------------------------------------------------------|
D|-----------------------5-5-----5-7-7-7-5-----------------------------------|
A|---------5-7-3-3---5-7-------7-----------7-5-------------------------------|
E|--5-5----------------------------------------------------------------------|

End (Follows a slightly different tune to the main riff)

G|---------------------------------------------------------------------------|
D|-----------------------------5-5-5----5-7-7-7-5----------------------------|
A|----------5-7-3-3-3------5-7--------7-----------7-5------------------------|
E|---5-5-5--------------------------------------------- (5) -----------------|

End on E|--(5)--


| /  slide up
| \  slide down
| h  hammer-on
| p  pull-off
| ~  vibrato
| +  harmonic
| x  Mute note
===============================================================================





Comments


Popular Foals tabs & chords
Astronauts N All Bass Tabs
Balloons 1 Bass Tabs
Inhaler 2 Bass Tabs
Astronauts N All Tabs
Big Big Love Intro Tabs
Moon Tabs
Spanish Sahara 3 Tabs
Tron Tabs
This Orient Ukulele
Total Life Forever Ukulele


Song lyrics



↑ Back to top | Tablatures and chords are parodies/interpretations of the original songs. You may use it for private study, scholarship, research or language learning purposes only
© 2014 AZChords.com Contact us | Privacy policy | DMCA | Add/correct tabs | Request tabs | Top 50 tabs