» » »

Foals, Olympic Airways Tabs (ver.1)

Artists:  A B C D E F G H I J K L M N O P Q R S T U V W X Y Z # 

Olympic Airways Tabs (ver.1)

Foals Tabs
 Rating:
4.4/5 (7 votes)
Olympic Airways lessons Tabs too difficult? Try these video lessons and learn fast
1
                -------------------------------------------------------------------------------
-------------------------------------------------------------------------------

Tuning: Standard
Guitar 1:
Intro/Verse:
e|--12+--12+----------------------------------------------12+----------------|
B|-----------12+-----12+-------------------------------12+-------------------|
G|---------------12+-----12+-----12+----------------12+----------------------|
D|---------------------------12+-----12+---------12+-------------------------|
A|---------------------------------------12+--12+----------------------------|
E|---------------------------------------------------------------------------|
Chorus: Repeat as long as necessary
e|--12+---12+---12+-12+------------------------------------------------------|
B|-----12+---12+---12+--12+--------------------------------------------------|
G|---------------------------------------------------------------------------|
D|---------------------------------------------------------------------------|
A|---------------------------------------------------------------------------|
E|---------------------------------------------------------------------------|
Verse Again
Chorus Again

Solo:
e|---------------------------------------------------------------------------|
B|------------------------------------------------------------17-------17----|
G|-----21----19-19-19s21-21-21-17-1716------21----19-19-19-17----1716--------|
D|-19-----19-----------------------------19----19-------------------------19-|
A|---------------------------------------------------------------------------|
E|---------------------------------------------------------------------------|

e|------------------------------17-17--------------------------17------17----|
B|--------------------17-17-17---------------21----19-19-19-17----1716-------|
G|-----21----19-19-19-----------------19--19----19------------------------19-|
D|--19----19-----------------------------------------------------------------|
A|---------------------------------------------------------------------------|
E|---------------------------------------------------------------------------|

Bridge:
e|---------------------------------------------------------------------------|
B|---------------------------------------------------------------------------|
G|-----------------------------------------------------21212121--------------|
D|--19(x ALOT)----191919191919191919191919191919191919-----------------------|
A|---------------------------------------------------------------------------|
E|---------------------------------------------------------------------------|
Verse to go finish song.

Guitar 2:
Intro:
e|---------------------------------------------------------------------------|
B|---131313131313131313131313131313131313------------------------------------|
G|---------------------------------------------------------------------------|
D|---------------------------------------------------------------------------|
A|---------------------------------------------------------------------------|
E|---------------------------------------------------------------------------|

Verse:Repeat until chorus
e|---------------------------------------------------------------------------|
B|----12+--------12+---------------------------------------------------------|
G|--12+---12+--12+---12+-----------------------------------------------------|
D|---------------------------------------------------------------------------|
A|---------------------------------------------------------------------------|
E|---------------------------------------------------------------------------|
Chorus 1 same as Guitar 1.
Play Verse again.
Chorus 2: start same as first chorus then
e|---------------------------------------------------------------------------|
B|---------------------------------------------------------------------------|
G|---------------------------------------------------------------------------|
D|--19191919191919191919191919191919191919191919-----------------------------|
A|---------------------------------------------------------------------------|
E|---------------------------------------------------------------------------|
up to solo.
Solo: very similar to guitar 1 solo just just the 19th fret alot and hit random notes 
in first solo, pretty much the same though.
Bridge:
e|---------------------------------------------------------------------------|
B|---------------------------------------------------------------------------|
G|----17171717171717-19191919191919-212121212121212121-----------------------|
D|---------------------------------------------------------------------------|
A|---------------------------------------------------------------------------|
E|---------------------------------------------------------------------------|
repeat till end then play verse until finish of song,

And Hooray! Done! quite an ordeal to write but think i got there in end,
anything wrong please tell.
big love x
************************************

| s   slide
| h   hammer-on
| p   pull-off
| ~   vibrato
| +   harmonic
| x   Mute note

************************************
            
Submit corrections

comments powered by Disqus
↑ Back to top | Foals Tabs for Olympic Airways. Lyrics for acoustic guitar and electric guitar. 1 Tablatures and chords are parodies/interpretations of the original songs. You may use it for private study, scholarship, research or language learning purposes only