» » »

Foals, Mathletics Bass tabs (ver.1)

Artists:  A B C D E F G H I J K L M N O P Q R S T U V W X Y Z # 

Mathletics Bass tabs (ver.1)

Foals Tabs
Rating:
3/5 (3 votes)
Mathletics lessons Tabs too difficult? Try these video lessons and learn fast
                
Tuning: EADG Standard


Intro 

G|-----------|
D|-----------| 
A|-----------|
E|-1/5-------|

Intro End
G|----------------------------|
D|----------------------5-----| 
A|-----------------5-7--------|
E|--1/5-1/5--1/5-7------------|

Verse 1
G|---------------------------------------------------------------------------|
D|--------------------------------------5------------------------------------|
A|---------------------------------5-6-7-------------------------------------|
E|-------4-4-4-4-4-4-4-4-4-4-4-4-7-------------------------------------------|  

Chorus
G|---------------------------------------------------------------------------|
D|--------7-7-7-7-7-6---7-7-7-7-7-6------------------------------------------|
A|-----------------------------------6-6-6-6-6-5---3-3-2-0-------------------|
E|----------------------------------------------------------3----------------|

Verse 2
G|--------------------------------------|
D|--------------------------------------|
A|-------------------3-3-3-3------------|
E|---6-6-6-6-3-3-3-3----------6-6-6-6---|

Bridge
G|---------------------------------------------------------------------------|
D|------------------------------------------------5--------------------------|
A|--------------------------------------------5-7----------------------------|
E|---1/5-5-5-5-1/5-5-5-5-1/5-5-5-5-5---1/5--7--------------------------------|

Intro x12
Intro End x1
Verse 1 x4
Chorus x4
Verse 1 x2
Verse 2 x2
Break x6

I think everythings in order minus the break. That might be a bit off like.



| /  slide up
| \  slide down
| h  hammer-on
| p  pull-off
| ~  vibrato
| +  harmonic
| x  Mute note
===============================================================================
            
Submit corrections

comments powered by Disqus
↑ Back to top | Foals Bass for Mathletics. Lyrics for acoustic guitar and electric guitar. Tablatures and chords are parodies/interpretations of the original songs. You may use it for private study, scholarship, research or language learning purposes only