» » »

Foals, Hummer Tabs (ver.2)

Artists:  A B C D E F G H I J K L M N O P Q R S T U V W X Y Z # 

Hummer Tabs (ver.2)

Foals Tabs
 Rating:
4/5 (4 votes)
Hummer lessons Tabs too difficult? Try these video lessons and learn fast
                Intro

Guitar 1 starts
e|------------------------|
B|------------------------|
G|------------------------|
D|------------14-14-12-10-|
A|12-12-12-12-12-12-12-12-|
E|------------------------|

Guitar 2
e|----------------|
B|----------------|
G|----------------|
D|----------------|
A|x12-x12-x12--15-|
E|----------------|

Verse

Guitar 1
e|--------------------------------------------------------|
B|--------------------------------------------------------|
G|--------------------------------------------------------|
D|------10-9----------10-9----------9p7-----------9p7-----|
A|12-12------12--12-12-----12--10-10----8-7--10-10----8-7-|
E|--------------------------------------------------------|

Guitar 2 - Not so sure, these are played offbeat
e|------------------------------------------------------|
B|------------------------------------------------------|
G|------------------------------------------------------|
D|-----17-14---------17-14--------12-10---------12-10---|
A|-----17-17---------17-17--------12-12---------12-12---|
E|------------------------------------------------------|

Chorus

Guitar 1
e|-------------------------------------------------------------------------|
B|-------------------------------------------------------------------------|
G|--1212-12--1212-12--1212-12--1212-12--1414-14--1414-14--1414-14--1414-14-|
D|14-------14-------14-------14-------14-------14-------14-------14--------|
A|-------------------------------------------------------------------------|
E|-------------------------------------------------------------------------|

e|-----------------------------------------------------------------------|
B|-----------------------------------------------------------------------|
G|--------------------------------14~~~~~~~~~~~~~~~~~~~~~~~~~~~~~~~~~~~~-|
D|-----------------------------------------------------------------------|
A|-----------------------------------------------------------------------|
E|-----------------------------------------------------------------------|

Guitar 2
e|-------------------------------------------------|
B|-------------------------------------------------|
G|--1412--1412--1412--1412--1412--1412--1412--1412-|
D|14----14----14----14----14----14----14----14-----|
A|-------------------------------------------------|
E|-------------------------------------------------|

e|----12----12----12----12----12----12----12----12-|
B|--13----13----13----13----13----13----13----13---|
G|14----14----14----14----14----14----14----14-----|
D|-------------------------------------------------|
A|-------------------------------------------------|
E|-------------------------------------------------|

Break is same as intro, other parts repeat

ENJOY!!!!!
            
Submit corrections

comments powered by Disqus
↑ Back to top | Foals Tabs for Hummer. Lyrics for acoustic guitar and electric guitar. Tablatures and chords are parodies/interpretations of the original songs. You may use it for private study, scholarship, research or language learning purposes only