» » »

Hummer Bass tabs (ver.1)

Artists:  A B C D E F G H I J K L M N O P Q R S T U V W X Y Z # 

Hummer Bass tabs (ver.1)

Foals
Rating:
5/5 (8 votes)

Hard to play? Try these video lessons and learn fast.
                This is my first tab I just started learning bass last week.
So I don't know how to tab rhythm but just listen to the song to pick it up.
All double figures are those actual numbers, not the single figures.
Fun to play easy to pick up, have fun!

Intro
-Bass is Silent-

At ~0:29
g------------------------------------------------------------|  \
d-----------------------------101010--1010-------------------|   \
a-121212--1212--121212--1212----------------101010-----------|    \
E---------------------------------------------------101010---|     \
                                                                     X2
g------------------------------------------------------------|     /
d------------------------------------------------------------|    /
a-121212--1212--121212--1212---------------------------------|   /
E-----------------------------131313--1313--101010--101010---|  /

at ~ 0:55  Chorus
g-------------------------------------------------9--1212------|
d---------------------------10--10101010--12--12---------------|
a-12--1212121212--12121212-------------------------------------|    X2
E--------------------------------------------------------------|

at ~ 1:08
g------------------------------------------------------------|  \
d-----------------------------101010--1010-------------------|   \
a-121212--1212--121212--1212----------------101010-----------|    \
E---------------------------------------------------101010---|     \
                                                                     X2
g------------------------------------------------------------|     /
d------------------------------------------------------------|    /
a-121212--1212--121212--1212---------------------------------|   /
E-----------------------------131313--1313--101010--101010---|  /

at ~1:34
g-------------------------------------------------9--1212------|
d---------------------------10--10101010--12--12---------------|
a-12--1212121212--12121212-------------------------------------|    X2
E--------------------------------------------------------------|

at ~1:47
g------------------------------------------------------------|
d-----------------------------101010--1010-------------------|  
a-121212--1212--121212--1212----------------101010-----------|   
E---------------------------------------------------101010---|    
                                                                     
g------------------------------------------------------------|     
d------------------------------------------------------------|    
a-121212--1212--121212--1212---------------------------------|   
E-----------------------------131313--1313--101010--101010---|  

g------------------------------------------------------------|
d-----------------------------101010--1010-------------------|  
a-121212--1212--121212--1212----------------101010-----------|   
E---------------------------------------------------101010---|    
                                                                     
g------------------------------------------------------------|     
d------------------------------------------------------------|    
a-121212--1212--121212--1212---------------------------------|   
E-----------------------------13------13----10--10--10--10---|  

at ~ 2:13
g------------------------------------------------------------|
d-----------------------------101010--1010-------------------|  
a-121212--1212--121212--1212----------------101010-----------|   
E---------------------------------------------------101010---|    
                                                               
g------------------------------------------------------------|
d-----------------------------101010--1010-------------------|  
a-121212--1212--121212--1212----------------101010-----------|   
E---------------------------------------------------101010---| 

g------------------------------------------------------------|
d-----------------------------101010--10--10-----------------|  
a-121212--1212--121212--1212------------------10-10-10-------|   
E-----------------------------------------------------101010-|    

g--------------------------------------------------------------|     
d--------------------------------------------------------------|    
a-121212--1212--121212--1212-----------------------------------|   
E-----------------------------131313--13--13--10-10-10--101010-|  

at ~2:38
g-------------------------------------------------9--1212------|
d---------------------------10--10101010--12--12---------------|
a-12--1212121212--12121212-------------------------------------|    X2
E--------------------------------------------------------------|

Finish on
g----|
d----|
a-12-|
E----|

Thanks!
Jac
            
Hard to play? Try these video lessons and learn fast. | Correct




comments powered by Disqus
↑ Back to top | Tablatures and chords are parodies/interpretations of the original songs. You may use it for private study, scholarship, research or language learning purposes only