>
 >
Heavy Water

Heavy Water Guitar Tabs

Foals - Heavy Water chords, tabs, tablatures, lyrics

Guitar lessons | Add/correct | Request | Top 50 tabs Artists:  A B C D E F G H I J K L M N O P Q R S T U V W X Y Z 0-9

Heavy Water Guitar Tabs – Foals

CD, Sheet music, Poster

Do you like Heavy Water? Share with your friends now
Bass TabsTabs
Fantastic band and song, here we go....

Intro/Verse

Jimmy - Palm muted to start, then un mute when Yannis starts singing
e|--------------------------------------------------|
B|------------------161616-161616-------------------|
G|------------161616-------------161616-------------|
D|------181818-------------------------181818-------|
A|191919-------------------------------------191919-|
E|--------------------------------------------------|

or
e|------------------111111-111111-------------------|
B|------------121212-------------121212-------------|
G|------131313-------------------------131313-------|
D|141414-------------------------------------141414-|
A|--------------------------------------------------|
E|--------------------------------------------------|

Yannis plays the same thing but comes in when he sings

Intrumental Break after verses

Jimmy
e|-------------------------------------------------|
B|-------------------------------------------------|
G|-------------------------------------------------|
D|x11x11x11x11------------------------x11x11x11x11-|
A|------------x11x11x11x11x14x14x14x14-------------|
E|-------------------------------------------------|

Yannis - This is what I hear on the record, live he plays different but i havent worked it out yet
e|----------------------------------------------------------------|
B|----------------------------------------------------------------|
G|------------------------13~-----------------------------13~-----|
D|11~-----11~-----11~-------------11~-----11~-----11~-------------|
A|----------------------------------------------------------------|
E|----------------------------------------------------------------|

Breakdown

Jimmy - This note is played every time immediately after you hear the bass drum
e|-----------------------------------------|
B|-----------------------------------------|
G|-----------------------------------------|
D|--11--11--11--11--11--11--11--11--11--11-|
A|-----------------------------------------|
E|-----------------------------------------|

Yannis
e|---------------------------------------------------------------|
B|---------------------------------------------------------------|
G|-----13-----131311--131311-----------13---131311---131311------|
D|11\6----11--------14------14-13-11\6---11-------14-------14-13-|
A|---------------------------------------------------------------|
E|---------------------------------------------------------------|

Both guitars
e|----------------------------------------------------|
B|----------------------------------------------------|
G|----------------------------------------------------|
D|---------------------11------------------------11---|
A|9-------9-----------------9-------9-----------------|
E|--12-9----12-9129-99---9----12-9----12-9129-99----9-|

Breakdown Break..didnt know what else to call it....

Jimmy - tremolo
e|---------------------------------------------|
B|---------------------------------------------|
G|14~~~~~~~~16~~~~18~~~~14~~~~~~~~16~~~~18~~~~-|
D|---------------------------------------------|
A|---------------------------------------------|
E|---------------------------------------------|

Yannis
e|-------------------------------------|
B|-------------------------------------|
G|11-9----11-9--9----11-9----11-9--9---|
D|-----11-----11-11-------11-----11-11-|
A|-------------------------------------|
E|-------------------------------------|

e|-----------------------------------------------------------------------|
B|-----------------------------------------------------------------------|
G|13-11----13-11---13-11-------------13-11----13-11----13-11-------------|
D|------14------14-------14-13-11----------14-------14-------14-13-11----|
A|--------------------------------14----------------------------------14-|
E|-----------------------------------------------------------------------|

This loop comes in towards the end of the song, palm muted
e|-------------------------------|
B|-------------------------------|
G|-------------------------------|
D|9999999999966-6-999999999966-6-|
A|-------------------------------|
E|-------------------------------|





Comments


Popular Foals tabs & chords
Astronauts N All Bass Tabs
Electric Bloom 2 Bass Tabs
Late Night Chords
Total Life Forever Chords
Olympic Airways Tabs
Olympic Airways Intro Tabs
Red Socks Pugie 2 Tabs
Red Socks Pugie Intro Tabs
Tron Tabs
Cassius Ukulele


Song lyrics



↑ Back to top | Tablatures and chords are parodies/interpretations of the original songs. You may use it for private study, scholarship, research or language learning purposes only
© 2014 AZChords.com Contact us | Privacy policy | DMCA | Add/correct tabs | Request tabs | Top 50 tabs