» » »

Foals, Heavy Water Bass tabs (ver.1)

Artists:  A B C D E F G H I J K L M N O P Q R S T U V W X Y Z # 

Heavy Water Bass tabs (ver.1)

Foals Tabs
 Rating:
4/5 (8 votes)
Heavy Water lessons Tabs too difficult? Try these video lessons and learn fast
                

Not sure if it’s 100% but it sounds ok and couldn’t find anyone else who had tabs for 
This is my first tab so I hope its ok, they sound great. Enjoy.

Standard tuning: E A D G

Intro: no bass

Verse 0:17
G|---------------------------------------------------------------------------|
D|---------------------------------------------------------------------------|
A|-4---4-4-4-4---4---4-4-4---4---4-4-4---4---4-4-2---0---0-0-0-0---0---0-0-0-|
E|---------------------------------------------------------------------------|

G|-----------------------------|
D|-----------------------------|
A|-4---4-4-4-4---4---4-4-4---4-|
E|-----------------------------|

Chorus 0.47
G|----------6-----------4-----------------------6-| X4
D|----------------------------------6-------------|
A|-4-4--4-4----2-2--2-2----------------4-4--4-4---|
E|-------------------------4-4--4-4---------------|

Verse 1:17
G|-----------------------------------------------------| X2
D|-----------------------------------------------------|
A|-4---4-4-4-4---4---4-4-4-2---0---0-0-0-0---0---0-0-0-|
E|-----------------------------------------------------|

Chorus 1.47
G|----------6-----------4-----------------------6-| X4
D|----------------------------------6-------------|
A|-4-4--4-4----2-2--2-2----------------4-4--4-4---|
E|-------------------------4-4--4-4---------------|

Bridge 2.17
G|-----------------------------|
D|-----------------------------|
A|-----------------------------|
E|-----------------------------|

2:43
G|------------------------------|  play to the end
D|------------------------------|
A|-8-7-4-8-7-4----4-8-7-4-8-7-4-|
E|------------------------------|

Please rate/ improve
thanks
            
Submit corrections

comments powered by Disqus
↑ Back to top | Foals Bass for Heavy Water. Lyrics for acoustic guitar and electric guitar. Tablatures and chords are parodies/interpretations of the original songs. You may use it for private study, scholarship, research or language learning purposes only