» » »

Foals, Electric Bloom Bass tabs (ver.3)

Artists:  A B C D E F G H I J K L M N O P Q R S T U V W X Y Z # 

Electric Bloom Bass tabs (ver.3)

Foals Tabs
Rating:
0/5 (0 votes)
Electric Bloom lessons Tabs too difficult? Try these video lessons and learn fast
                Intro
G|----------------------|
D|----------------------| 2x
A|----------5----2----4-|
E|2----5----------------|

Main riff
G|------------------------------------------------------------------|
D|------------------------------------------------------------------| 4x
A|--------------------------------5-5-5-5-5-5-5-5-0-2-2-2-0-4-4-4-4-|
E|2-2-2-2-2-2-2-2-5-5-5-5-5-5-5-5-----------------------------------|

Chorus a
G|------------------------------------------------------------------------|
D|------------------------------------------------------------------------|2x
A|9-9-9-9-9-9-9-9/12-12-12-12-12-12-12-12-5-5-5-5-5-5-5-0-2-2-2-0-4-4-4-4-|
E|------------------------------------------------------------------------|

Chorus b)
G|-------------------------------------------------------------------------|
D|/-12-12-12-12-12-12-12-12-11-11-11-11-9-9-9-9----------------------------|
A|----------------------------------------------9-9-9-9-9-9-9-9-9-9-9-9-9--|
E|-------------------------------------------------------------------------|

G|-------|
D|-------|
A|-9-9-9-| 2x
E|-------|

4x Main riff
2x chorus
Than fill with E -5-5-5--5-55-5-
4 x chorus b
4 x main riff
4 x chorus b
            

comments powered by Disqus
↑ Back to top | Foals Bass for Electric Bloom. Lyrics for acoustic guitar and electric guitar. Tablatures and chords are parodies/interpretations of the original songs. You may use it for private study, scholarship, research or language learning purposes only