>
 >
Cassius 1

Cassius 1 Guitar Tabs

Foals - Cassius 1 chords, tabs, tablatures, lyrics

Guitar lessons | Add/correct | Request | Top 50 tabs Artists:  A B C D E F G H I J K L M N O P Q R S T U V W X Y Z 0-9

Cassius 1 Guitar Tabs – Foals

CD, Sheet music, Poster

Do you like Cassius 1? Share with your friends now
Bass TabsChordsTabsTabs v2Ukulele
FOALS "CASSIUS"

Tuning: Standard

VERSE:
GTR.I                                          1,3.
e|-------15151715-------15151715-----15151715-|-------15151715---|
B|----------------17-15-----------15----------|-17-15------------|
G|--------------------------------------------|------------------|(see
D|--------------------------------------------|------------------| below*)
A|-----------------(repeats for some time)----|------------------|
E|--------------------------------------------|------------------|
GTR.II                                                           |
e|---------------------------------------------------------------|
B|---------------------------------------------------------------|
G|-14-14-17171717-14-14-17171717-14-14-17171717-------17171717---|
D|----------------------------------------------14-14----------17|
A|---------------------------------------------------------------|
E|---------------------------------------------------------------|
* 2,4.
e|-----------------| 
B|-17-1515-17-1515-|(small GTR.I variation)
G|-----------------|

CHORUS:
GTR.I                                   1,2,3.
e|-17-15----17-15--------------------19-15---|
B|-------17-------17-15-17--17-15------------|
G|--------------------------------17---------|3X (then the guitar
D|-------------------------------------------| variations below**)
A|-------------------------------------------|
E|-------------------------------------------|
GTR.II (each have different rhythms, try to listen out for them!)  
e|----------------------17/19-15-----------------------17/19-15-|
B|-------------------------------17-17-17-17-15-15(15)----------|
G|-14-14-14-14-14-14-14-----------------------------------------|
D|--------------------------------------------------------------|
A|--------------------------------------------------------------|
E|--------------------------------------------------------------|
**4.
GTR.I
e|----17-15----------------------|
B|-15-------17-15-17-1515-151515-|(odd rhythm change
G|-------------------------------| variation)
D|-------------------------------|
A|-------------------------------|
E|-------------------------------|
GTR.II                           |  
e|-------------------------------|
B|-17---17---17---17--15--151517-|(just spaced it out
G|-------------------------------| so you can see where guitar
D|-------------------------------| two might play under guitar one
A|-------------------------------| etc - if you see it, lol)
E|-------------------------------|

INTERLUDE:
GTR I + II.       1,3.  2,4.
e|-------------------|-----|
B|-------------------|-----|
G|-------------------|-----| 4X
D|-X-X-X-X-X-X-X-7~--|-7-7-|(might of arranged it
A|-X-X-X-X-X-X-X-7~--|-7-7-| wrong, so my apologies if so)
E|-X-X-X-X-X-X-X-5~--|-5-5-|
  (not exact-ish)

BRIDGE:
GTR.I (palm muted, slightly)            1,2,3.                  4.
e|-1717-15-17-19-17-15--1717-15-17-191715----|-17-15----17-15----|
B|----------------------------------------17-|-------17-------17-|
G|-------------------------------------------|-------------------| etc.
D|-------------------------------------------|-------------------|
A|-------------------------------------------|-------------------|
D|-------------------------------------------|-------------------|
GTR.II (palm muted, slightly)           1,2,3.                  4.
e|-------------------------------------------|-------------------|
B|-------13-------------------12-------------|----13----------12-|
G|---1414-----------------1414---------------|--14----------14---| etc.
D|-14-------------------14--------141414-1414|14----------14-----|
A|-------------------------------------------|-------------------|
D|-------------------------------------------|-------------------|

FOR THE BRIDGE JUST BEFORE SOLO, IT CAN/SHOULD BE UN-MUTED

(SOLO Area) - TREMOLO PICKING + DELAY
GTR.I
    T
e|-12~----------19-15-|
B|-------15-----------|
G|-----------17-------|
D|--------------------| (i'm not 100% sure on this,
A|--------------------|  at this part i usually make summit
E|--------------------|  up based on what i've tabbed. I
GTR.II                   would like some suggestions on this
e|--------------------|  and i'm sorry if its not right) 
B|-13~-------?--------|
G|--------------------|
D|--------------------|
A|--------------------|
E|--------------------|


I'm sure if you listen to the song you'll where the parts
come in etc. Well that's the tab, suggestions/comments welcome.
Cheers (Y)





Comments


Popular Foals tabs & chords
Astronauts N All Bass Tabs
Cassius Bass Tabs
Miami 1 Bass Tabs
Tron 2 Bass Tabs
After Glow Tabs
Balloons 2 Tabs
Red Socks Pugie Intro Tabs
Tron Tabs
Two Step Twice Tabs
Late Night Ukulele


Song lyrics



↑ Back to top | Tablatures and chords are parodies/interpretations of the original songs. You may use it for private study, scholarship, research or language learning purposes only
© 2014 AZChords.com Contact us | Privacy policy | DMCA | Add/correct tabs | Request tabs | Top 50 tabs