» » »

Cassius Bass tabs (ver.1)

Artists:  A B C D E F G H I J K L M N O P Q R S T U V W X Y Z # 

Cassius Bass tabs (ver.1)

Foals
Rating:
5/5 (6 votes)

Hard to play? Try these video lessons and learn fast.
                I had to tab this out so it may as well go on here.




Verse

G|--------------------------------------------------|
D|--------------------------------------------------|
A|--------3-----------3-----3-3-3-5-3-3-5-5-5-7-5---|
E|3/5-5-5---5-5-5-5-5---5-5-----------------------3-|

Chorus pt.1

G|--------------------------------|
D|-------------------------------5|
A|-----------------3-3-3-3-5-5-7--|
E|-5-5-5-5-5-5-5-5----------------|


Chorus pt.2

G|--------------------------------|
D|-7-7-7-7-7-7-795----------------|
A|-----------------7-7-7-7-5-5-5-5|
E|--------------------------------|

Bridge

G|--------------|
D|--------------|
A|--------------|
E|------5----5-5|


Solo

G|--------------------------------|
D|------------------------------57|
A|----------------33333333555577--|
E|5555555555555555----------------| 

Play this twice then play the first part of the chorus twice.
            
Hard to play? Try these video lessons and learn fast. | Correct




comments powered by Disqus
↑ Back to top | Tablatures and chords are parodies/interpretations of the original songs. You may use it for private study, scholarship, research or language learning purposes only